Copyright © 1998-2001 MV Portal de Cifras  
                                                                    
Esta página é parte integrante de MV Portal de Cifras (http://www.mvhp.com.br)
Este material não pode ser publicado, transmitido, reescrito ou redistribuído sem prévia autorização. 
A Culpa É do Meu Grau 
(part. Zé Neto e Cristiano)
Tom: F# 
Intro: F  C  Bb9
E|------------------------------------------|
B|-5/6-6-6-6-5------------------------------|
G|-------------7-5-----5-5---4h5------------|
D|-5/7-7-7-7-5-----5/7-----7----------------|
A|------------------------------------------|
E|------------------------------------------|
E|------------------------------------------|
B|-5/6-6-6-6-5------------------------------|
G|-------------7-5-----5-5---4h5------------|
D|-5/7-7-7-7-5-----5/7-----7----------------|
A|------------------------------------------|
E|------------------------------------------|
E|------------------------------------------|
B|------------------------------------------|
G|------------------------------------------|
D|-5-7-8-7-5h7p5-7--------------------------|
A|-----------------8------------------------|
E|------------------------------------------|

[Primeira Parte]
    F
O freezer ta marcando menos quatro
    C
Ta todo mundo alegre e eu grilado
                    Dm7
Oque é que eu to fazendo aqui
                Bb9
Passou da meia noite e ainda não bebi
[Pré-Refrão]
                 F
É que eu fiz promessa pra parar
                C
Pra vê se você volta mais não dá
                 Dm7
Eu encaro a  garrafa ela me encara não tem jeito
                Bb9
É questão de segundo eu vou mandar ela pro peito
[Refrão]
                        F
Se eu não beber eu fico anti-social
                       C
Se eu fico são o povo vê que eu to mal
                            Dm7
Como é que eu vou ligar pra ela com a voz normal
                      Bb9
Se eu já acostumei jogar a culpa no meu grau
                        F
Se eu não beber eu fico anti-social
                       C
Se eu fico são o povo vê que eu to mal
                            Dm7
Como é que eu vou ligar pra ela com a voz normal
                      Bb9
Se eu já acostumei jogar a culpa no meu grau
A culpa é do meu grau
[Solo] F  C  Dm7  Bb9
E|------------------------------------------|
B|-5/6-6-6-6-5------------------------------|
G|-------------7-5-----5-5---4h5------------|
D|-5/7-7-7-7-5-----5/7-----7----------------|
A|------------------------------------------|
E|------------------------------------------|
E|------------------------------------------|
B|-5/6-6-6-6-5------------------------------|
G|-------------7-5-----5-5---4h5------------|
D|-5/7-7-7-7-5-----5/7-----7----------------|
A|------------------------------------------|
E|------------------------------------------|
E|------------------------------------------|
B|-------------------5/6-6-6-6-5------------|
G|-5-5-5-5-5-5-5-5-7-------------7-5--------|
D|------------------------------------------|
A|------------------------------------------|
E|------------------------------------------|
E|-5----------------------------------------|
B|---8-6-5----------------------------------|
G|---------7-5------------------------------|
D|-------------7-5--------------------------|
A|-----------------8------------------------|
E|------------------------------------------|
[Pré-Refrão]
                 F
É que eu fiz promessa pra parar
                C
Pra vê se você volta mais não dá
                 Dm7
Eu encaro a  garrafa ela me encara não tem jeito
                Bb9
É questão de segundo eu vou mandar ela pro peito
[Refrão]
                        F
Se eu não beber eu fico anti-social
                       C
Se eu fico são o povo vê que eu to mal
                            Dm7
Como é que eu vou ligar pra ela com a voz normal
                      Bb9
Se eu já acostumei jogar a culpa no meu grau
                        F
Se eu não beber eu fico anti-social
                       C
Se eu fico são o povo vê que eu to mal
                            Dm7
Como é que eu vou ligar pra ela com a voz normal
                      Bb9
Se eu já acostumei jogar a culpa no meu grau
                        F
Se eu não beber eu fico anti-social
                       C
Se eu fico são o povo vê que eu to mal
                            Dm7
Como é que eu vou ligar pra ela com a voz normal
                      Bb9
Se eu já acostumei jogar a culpa no meu grau
A culpa é do meu grau
[Final] F  C  Bb  F
E|------------------------------------------|
B|-5/6-6-6-6-5------------------------------|
G|-------------7-5-----5-5---4h5------------|
D|-5/7-7-7-7-5-----5/7-----7----------------|
A|------------------------------------------|
E|------------------------------------------|
E|------------------------------------------|
B|-5/6-6-6-6-5------------------------------|
G|-------------7-5-----5-5---4h5------------|
D|-5/7-7-7-7-5-----5/7-----7----------------|
A|------------------------------------------|
E|------------------------------------------|
Do Copo Eu Vim (part. Marília Mendonça)
Tom: C 
Intro: C  G  Am7  F
E|------------------------------------------|
B|---------6-5-5\3--------------------------|
G|-----5-7---------5---5/7------------------|
D|-5/7---------------5----------------------|
A|------------------------------------------|
E|------------------------------------------|
E|------------------------------------------|
B|---------6-5-5\3--------------------------|
G|-----5-7---------5-------5----------------|
D|-5/7---------------5-5/7---7-5------------|
A|------------------------------------------|
E|------------------------------------------|
[Primeira Parte]
      C
Você sabe a diferença entre o clima e o tempo
  G
Clima é o que nós dois não temos
 Am7                    F
Tempo é o que nós dois perdemos
[Pré-Refrão]
               C
Onde é que eu tava com a cabeça
              G
Quando abandonei as garrafas
                      Am7
Por você que por mim não se importa
               G/B         F            G
Mas um bom solteiro sempre à balada torna
[Refrão]
                  C
É que do copo eu vim
               G
Pro copo voltarei
                    Am7
Tava com um pé no amor
                F
Bebi e escorreguei
                  C
É que do copo eu vim
               G
Pro copo voltarei
               Am7
Em terra de balada
                    F
Quem tá solteiro é rei
                  C
É que do copo eu vim
               G
Pro copo voltarei
                    Am7
Tava com um pé no amor
                F
Bebi e escorreguei
                  C
É que do copo eu vim
               G
Pro copo voltarei
               Am7
Em terra de balada
                    F
Quem tá solteiro é rei
[Solo] C  G  Am7  F
E|------------------------------------------|
B|---------6-5-5\3--------------------------|
G|-----5-7---------5---5/7------------------|
D|-5/7---------------5----------------------|
A|------------------------------------------|
E|------------------------------------------|
E|------------------------------------------|
B|---------6-5-5\3---------------5-6-6/8----|
G|-----5-7---------5-------5----------------|
D|-5/7---------------5-5/7---7-7------------|
A|------------------------------------------|
E|------------------------------------------|
[Pré-Refrão]
               C
Onde é que eu tava com a cabeça
              G
Quando abandonei as garrafas
                      Am7
Por você que por mim não se importa
               G/B         F            G
Mas um bom solteiro sempre à balada torna
[Refrão]
                  C
É que do copo eu vim
               G
Pro copo voltarei
                    Am7
Tava com um pé no amor
                F
Bebi e escorreguei
                  C
É que do copo eu vim
               G
Pro copo voltarei
               Am7
Em terra de balada
                    F
Quem tá solteiro é rei
                  C
É que do copo eu vim
               G
Pro copo voltarei
                    Am7
Tava com um pé no amor
                F
Bebi e escorreguei
                  C
É que do copo eu vim
               G
Pro copo voltarei
               Am7
Em terra de balada
                    F
Quem tá solteiro é rei
[Final] C  G  Am7  F  C
E|------------------------------------------|
B|---------6-5-5\3--------------------------|
G|-----5-7---------5---5/7------------------|
D|-5/7---------------5----------------------|
A|------------------------------------------|
E|------------------------------------------|
E|------------------------------------------|
B|---------6-5-5\3------------5-6-8/10-8----|
G|-----5-7---------5--------7---------------|
D|-5/7---------------5-5/7------------------|
A|------------------------------------------|
E|------------------------------------------|
Infarto
Tom: Gm 
Intro: Eb  F  Gm7  Eb  F
E|------------------------------------------|
B|-----8-6-8-6-8-6-8-6-8/10-8-10-8-10-8-10-8|
G|------------------------------------------|
D|-7/8--------------------------------------|
A|------------------------------------------|
E|------------------------------------------|
E|------------------------------------------|
B|-10/11-8-8/10-6-6/8-----------------------|
G|------------------------------------------|
D|------------------------------------------|
A|------------------------------------------|
E|------------------------------------------|
E|------------------------------------------|
B|--8-6-8-6-8-6-8-6-8/10-8-10-8-10-8-10-8---|
G|------------------------------------------|
D|------------------------------------------|
A|------------------------------------------|
E|------------------------------------------|

E|------------------------------------------|
B|-10/11------------------------------------|
G|------------------------------------------|
D|------------------------------------------|
A|------------------------------------------|
E|------------------------------------------|
[Primeira Parte]
      Bb
Ajuda eu aqui, me deu uma tonteira
                      F
Traz uma cadeira, que eu vou cair
                                    Gm7
Cancela a cerveja e traz água com açúcar aí
               Eb  F
Já me senti assim
[Pré-Refrão]
    Eb
Eu tenho uma doença
        F
Que tem um metro e sessenta
      Gm7
E acabou de entrar ali naquela porta
         Eb                         F
Fecha a conta, tá aumentando os sintomas
[Refrão]
               Bb
E o peito tá doendo
                   F
Tomara que seja infarto
                       Gm7
Se for amor, eu tô ferrado
                      Eb  F
Aí vai ser pior o estrago
               Bb
E o peito tá doendo
                   F
Tomara que seja infarto
                       Gm7
Se for amor, eu tô ferrado
                      Eb  F
Aí vai ser pior o estrago
[Solo] Eb  F  Gm7
       Eb  F
E|------------------------------------------|
B|-----8-6-8-6-8-6-8-6-8/10-8-10-8-10-8-10-8|
G|------------------------------------------|
D|-7/8--------------------------------------|
A|------------------------------------------|
E|------------------------------------------|
E|------------------------------------------|
B|-10/11-8-8/10-6-6/8-----------------------|
G|------------------------------------------|
D|------------------------------------------|
A|------------------------------------------|
E|------------------------------------------|
E|------------------------------------------|
B|--8-6-8-6-8-6-8-6-8/10-8-10-8-10-8-10-8---|
G|------------------------------------------|
D|------------------------------------------|
A|------------------------------------------|
E|------------------------------------------|
E|------------------------------------------|
B|-10/11------------------------------------|
G|------------------------------------------|
D|------------------------------------------|
A|------------------------------------------|
E|------------------------------------------|
[Primeira Parte]
      Bb
Ajuda eu aqui, me deu uma tonteira
                      F
Traz uma cadeira, que eu vou cair
                                    Gm7
Cancela a cerveja e traz água com açúcar aí
               Eb  F
Já me senti assim
[Pré-Refrão]
    Eb
Eu tenho uma doença
        F
Que tem um metro e sessenta
      Gm7
E acabou de entrar ali naquela porta
         Eb                         F
Fecha a conta, tá aumentando os sintomas
[Refrão]
               Bb
E o peito tá doendo
                   F
Tomara que seja infarto
                       Gm7
Se for amor, eu tô ferrado
                      Eb  F
Aí vai ser pior o estrago
               Bb
E o peito tá doendo
                   F
Tomara que seja infarto
                       Gm7
Se for amor, eu tô ferrado
                      Eb  F
Aí vai ser pior o estrago
[Final] Eb  F  Gm7
E|------------------------------------------|
B|--8-6-8-6-8-6-8-6-8/10-8-10-8-10-8-10-8---|
G|------------------------------------------|
D|------------------------------------------|
A|------------------------------------------|
E|------------------------------------------|
E|------------------------------------------|
B|-10/11------------------------------------|
G|------------------------------------------|
D|------------------------------------------|
A|------------------------------------------|
E|------------------------------------------|

Prefiro Nem Perguntar
Tom: G 
Em                                           Bm
Eu ouvir dizer que você tá novamente na cidade
                                                C
Ontem pensei em ligar mas quando vi já era tarde
                                                 Em    G  D
Bem melhor pensar assim do que na falta de coragem
C
Sei vai ser inevitável a gente se encontrar
Em
Sei é natural a gente se esbarrar
               G
Os mesmos amigos
Os mesmos lugares
C
Só a gente sem graça tentando disfarçar
G
Como tá a sua vida?
O seu aniversário?
              C
Cê tava acompanhada no último ano?
          Em
E a faculdade? Deve tá quase formando
         Am
E o coração como é que tá?
                       C
Quer saber, deixa pra lá
                     Em  G
Prefiro nem perguntar
( G  C  Em  Am )
C
Sei vai ser inevitável a gente se encontrar
Em
Sei é natural a gente se esbarrar
               G
Os mesmos amigos
Os mesmos lugares
C
Só a gente sem graça tentando disfarçar
G
Como tá a sua vida?
O seu aniversário?
              C
Cê tava acompanhada no último ano?
          Em
E a faculdade? Deve tá quase formando
         Am
E o coração como é que tá?
                       C
Quer saber, deixa pra lá
G
Como tá a sua vida?
O seu aniversário?
              C
Cê tava acompanhada no último ano?
          Em
E a faculdade? Deve tá quase formando
         Am
E o coração como é que tá?
                       C
Quer saber, deixa pra lá
                     Em
Prefiro nem perguntar
                G
Prefiro nem perguntar
                Em
Prefiro nem perguntar
                Em
Prefiro nem perguntar

BACK | RELOAD | FORWARD