Copyright © 1998-2001 MV Portal de Cifras  
                                                                    
Esta página é parte integrante de MV Portal de Cifras (http://www.mvhp.com.br)
Este material não pode ser publicado, transmitido, reescrito ou redistribuído sem prévia autorização. 
Mentira
Tom: D 
Intro: Bm7  G7M  A9
   G9
Involuntariamente
Tô ouvindo nossa música
D9
  Lembrando que era só
Atravessar a rua
Bm
  Matar nossa vontade
A9
  Essa parte da minha vida
Eu chamo de saudade
    G9
E quando eu vejo
Tô stalkeando suas fotos
D9
  Ligando restrito pra

Ouvir sua voz linda
Bm
  E como é linda
A9
  Essa parte da minha vida
Eu chamo de recaída
[Pré-Refrão]
    G9
Eu corro para qualquer barzinho
Pra qualquer balada
D9
  Qualquer beijo é beijo
                  Bm
Qualquer corpo encaixa
Essa parte da minha vida
Eu chamo de
[Refrão]
    G9
Mentira
Eu tô virado já
           A9
Faz cinco dias
E a minha cama
            F#m
Tá igual você
Não tem meu corpo
Em cima dela
      Bm
E parece que
Não vai mais ter
 A  G9
Mentira
Na rede social
      A9
É só mentira
Eu posto o contrário
          F#m
Da minha vida
Como é que você superou
            Bm
A gente em tão pouco tempo?
                 G
Me ensina, me ensina
( G9  A9  F#m  Bm )
[Pré-Refrão]
    G9
Eu corro para qualquer barzinho
Pra qualquer balada
D9
  Qualquer beijo é beijo
                  Bm
Qualquer corpo encaixa
                     A9
Essa parte da minha vida
Eu chamo de
[Refrão]
    G9
Mentira
Eu tô virado já
           A9
Faz cinco dias
E a minha cama
            F#m
Tá igual você
Não tem meu corpo
Em cima dela
      Bm
E parece que
Não vai mais ter
 A  G9
Mentira
Na rede social
      A9
É só mentira
Eu posto o contrário
          F#m
Da minha vida
Como é que você superou
            Bm
A gente em tão pouco tempo?
Me ensina, me ensina
    G9
Mentira
Eu tô virado já
           A9
Faz cinco dias
E a minha cama
            F#m
Tá igual você
Não tem meu corpo
Em cima dela
      Bm
E parece que
Não vai mais ter
 A  G9
Mentira
Na rede social
      A9
É só mentira
Eu posto o contrário
          F#m
Da minha vida
Como é que você superou
            Bm
A gente em tão pouco tempo?
                 G
Me ensina, me ensina
( G9  A9  F#m  Bm )
[Final]
G9
  Me ensina como faz
             A9
Pra não lembrar
Me ensina como faz
             Bm
Pra não chorar
Me ensina como faz
Pra deixar tudo assim
Pra lá
G9
  Me ensina como faz
             A9
Pra não lembrar
Me ensina como faz
             Bm
Pra não chorar
Me ensina como faz
Pra deixar tudo assim
Pra lá
Espaçosa Demais
Tom: Bb 
Intro:
[Dedilhado]
   D9                   A9 
E|------------------------------------------|
B|-------3-3-3-----3----------5-5-5-----5---|
G|-----2---2---2-----2------4---4---4-----4-|
D|---4-----4-----4--------7-----7-----7-----|
A|-5-------5------------0-------0-----------|
E|------------------------------------------|
   C#m7                         E   
E|------------------------------------------|
B|-------5-5-5-----5----------5-5-5-----5---|
G|-----4---4---4-----4------4---4---4-----4-|
D|---6-----6-----6--------6-----6-----6-----|
A|-4-------4------------4-------7-----------|
E|------------------------------------------|
[Solo]

E|------------------------------------------|
B|------------------------------------------|
G|-2-1/2~----2-4-4/6-2-1/2----2-4-4/6-2-2\1-|
D|---------4----------------4---------------|
A|------------------------------------------|
E|------------------------------------------|
E|------------------------------------------|
B|------------------------------3/5---------|
G|---1-2-2/4--1h2p1-2---1h2p1-2-------------|
D|-4------------------4---------------------|
A|------------------------------------------|
E|------------------------------------------|
[Primeira Parte]
     A9
Quando você chegou
D9                          A9
  Já tinha muita gente por lá
                                     D9
Aff tá dando um trabalhão pra organizar
[Segunda Parte]
                 Bm7         D9
O coração tava cheio cheio cheio
             A9                E
Não tinha espaço pra me apaixonar
Foi só você me dar
    Bm7                D9
Um beijo um dengo um cheiro
        A9                E
Pra chegar de vez e bagunçar
[Pré-Refrão]
                   Bm7  D9
Não aperta o povo não
          A9               E
Tem mais gente no meu coração
                Bm7
Mamãe tá no cantinho
   A/C#      D9
Papai apertadinho
      E
Tem amigo indo parar lá no pulmão
[Refrão]
     D9
Tem como ser um pouco menos linda
     A9
Tem como eu ser o dono da minha vida
     C#m7
Tem como não ser assim tão perfeita
      F#m                    E
Já tomou meu coração e tá subindo pra cabeça
     D9
Tem como ser um pouco menos linda
     A9
Tem como eu ser o dono da minha vida
     C#m7
Tem como não ser assim tão perfeita
      F#m                    E
Já tomou meu coração e tá subindo pra cabeça
    D9     A9      C#m7  F#m  E
Aí aí espaçosa demais
[Segunda Parte]
                 Bm7         D9
O coração tava cheio cheio cheio
             A9                E
Não tinha espaço pra me apaixonar
Foi só você me dar
    Bm7                D9
Um beijo um dengo um cheiro
        A9                E
Pra chegar de vez e bagunçar
[Pré-Refrão]
                   Bm7  D9
Não aperta o povo não
          A9               E
Tem mais gente no meu coração
                Bm7
Mamãe tá no cantinho
   A/C#      D9
Papai apertadinho
      E
Tem amigo indo parar lá no pulmão
[Refrão]
     D9
Tem como ser um pouco menos linda
     A9
Tem como eu ser o dono da minha vida
     C#m7
Tem como não ser assim tão perfeita
      F#m                    E
Já tomou meu coração e tá subindo pra cabeça
     D9
Tem como ser um pouco menos linda
     A9
Tem como eu ser o dono da minha vida
     C#m7
Tem como não ser assim tão perfeita
      F#m                    E
Já tomou meu coração e tá subindo pra cabeça
    D9     A9
Aí aí espaçosa demais
     C#m7
Espaçosa demais
      F#m                    E
Já tomou meu coração e tá subindo pra cabeça
     D9
Tem como ser um pouco menos linda
     A9
Tem como eu ser o dono da minha vida
     C#m7
Tem como não ser assim tão perfeita
      F#m                    E
Já tomou meu coração e tá subindo pra cabeça
    D9     A9
Aí aí espaçosa demais
     C#m7
Espaçosa demais
      F#m                    E           D9  A
Já tomou meu coração e tá subindo pra cabeça
Atrasadinha (part. Ferrugem)
Tom: G 
Intro:
   C9                      D9(11)  H.N.
E|----------x-----------x-------------------|
B|-------3--x--------3--x--------3--7-------|
G|-----0----x------0----x------0----7-------|
D|---2------x----2------x----4------7-------|
A|-3--------x--3--------x--5----------------|
E|------------------------------------------|
            Em7
E|------------------------------------------|
B|------------------------------------------|
G|------------------------------------------|
D|----------2-5-4-5/7-----------------------|
A|-0h2--5p2---------------------------------|
E|------------------------------------------|
[Primeira Parte]
   C9                      D9(11)  
E|---------x----------x----------x---------x|
B|-------3-x--------3-x--------3-x-------3-x|
G|-----0---x------0---x------0---x-----0---x|
D|---2-----x----2-----x----4-----x---4-----x|
A|-3-------x--3-------x--5-------x-5-------x|
E|------------------------------------------|
   Bm7                   Em7
E|-------2-x--------2-x--0------------------|
B|-----3---x------3---x--3------------------|
G|---4-----x----4-----x--0------------------|
D|---------x----------x--2------------------|
A|-2-------x--2-------x--2------------------|
E|-----------------------0------------------|
   C9
Botei a melhor roupa
Pra esconder os meus defeitos
D9(11)
      Exagerei no perfume, pra te impressionar
Bm7                                 Em7
   Cheguei mais cedo pra te ver chegar
[Pré-Refrão]
           C9
E você chegou
Atrasadinha
          D9
Mas tava linda
          Bm7
E a boca calou
                            Em7
Mas meu coração gritou por cima
 C9
Vai na fé, aposta nela
                     D9
Que ela é uma boa menina
[Refrão]
         C9
Vamos pular
                                     D9
A parte que eu peço aquele vinho do bom
                               Bm7
A taça não merece tirar seu batom
Deixa comigo
                         Em7
Que pra isso eu tenho o dom
         C9
Vamos pular
                                     D9
A parte que eu peço aquele vinho do bom
                               Bm7
A taça não merece tirar seu batom
Deixa comigo
                         Em7
Que pra isso eu tenho o dom
    Am
E daí que é o nosso primeiro encontro?
 C9
Hoje eu te beijo e pronto
( G  C9  G  C9 )
[Pré-Refrão]
           C9
E você chegou
Atrasadinha
          D9
Mas tava linda
          Bm7
E a boca calou
                            Em7
Mas meu coração gritou por cima
 C9
Vai na fé, aposta nela
                     D9
Que ela é uma boa menina
[Refrão]
         C9
Vamos pular
                                     D9
A parte que eu peço aquele vinho do bom
                               Bm7
A taça não merece tirar seu batom
Deixa comigo
                         Em7
Que pra isso eu tenho o dom
         C9
Vamos pular
                                     D9
A parte que eu peço aquele vinho do bom
                               Bm7
A taça não merece tirar seu batom
Deixa comigo
                         Em7
Que pra isso eu tenho o dom
    Am
E daí que é o nosso primeiro encontro?
 C9
Hoje eu te beijo e pronto
( G  C9  G )
 C9
Hoje eu te beijo e pronto
( G  C9  G )
 C9                      G
Hoje eu te beijo e pronto
Ainda Sou Tão Seu
Tom: C
Intro: C  G  Am  F
[Violão 1]
E|--------------------------------------------|
B|--------------------------------------------|
G|-5p4--5-5-5-5~---------------9--7\5---------|
D|----------------5-5-5-5-5-5-----------5-----|
A|--------------------------------------------|
E|--------------------------------------------|
E|--------------------------------------------|
B|-4h5--4h5--4h5--4\2--2/4~-------------------|
G|--------------------------------------------|
D|--------------------------------------------|
A|--------------------------------------------|
E|--------------------------------------------|
E|----------3h5--3----------------------------|
B|-5-5-5-6-------------5/6-5~-----------------|
G|------------------5-------------------------|
D|--------------------------------------------|
A|--------------------------------------------|
E|--------------------------------------------|
E|----------3h5--3----------------------------|
B|-5-5-5-6-------------5/6-5~-----------------|
G|------------------5-------------------------|
D|--------------------------------------------|
A|--------------------------------------------|
E|--------------------------------------------|
E|--------------------------------------------|
B|--------------------------------------------|
G|--------------------------------------------|
D|-7-7-7--5h7p5--3--2~------------------------|
A|--------------------------------------------|
E|--------------------------------------------|
[Violão 2]
E|--------------------------------------------|
B|-5p4--5-5-5-5~---------------8--6p5---------|
G|----------------5-5-5-5-5-5-----------5-----|
D|--------------------------------------------|
A|--------------------------------------------|
E|--------------------------------------------|
E|--------------------------------------------|
B|-7/9--7h9--7h9--7\5--5/7~-------------------|
G|--------------------------------------------|
D|--------------------------------------------|
A|--------------------------------------------|
E|--------------------------------------------|
E|--------------------------------------------|
B|----------5h6--5----------------------------|
G|-5-5-5-7-------------5h7--5~----------------|
D|------------------7-------------------------|
A|--------------------------------------------|
E|--------------------------------------------|
E|--------------------------------------------|
B|----------5h6--5----------------------------|
G|-5-5-5-7-------------5h7--5~----------------|
D|------------------7-------------------------|
A|--------------------------------------------|
E|--------------------------------------------|
E|--------------------------------------------|
B|--------------------------------------------|
G|--------------------------------------------|
D|-3-3-3--2h3p2-------------------------------|
A|---------------5--3~------------------------|
E|--------------------------------------------|
C
 Era mais fácil ter beijado aquela boca 
Mais cedo na balada 
[Riff 1]
E|--------------------------------------------|
B|--------------------------------------------|
G|--------------------------------------------|
D|--------5-----------------------------------|
A|-3h5/7-----7~-------------------------------|
E|--------------------------------------------|
F
 Era mais fácil ter ficado com a minha turma 
Só enchendo a cara 
[Riff 2]
E|--------------------------------------------|
B|-6/8\6--------------------------------------|
G|-x-------5/7\5------------------------------|
D|-x--------------3/5\3~----------------------|
A|-x------------------------------------------|
E|-x------------------------------------------|
C
 Porque que eu não quis passar meu telefone 
Pra ninguém, outra vez 
[Violão Slide]
E|--------------------------------------------|
B|--------------------------------------------|
G|-7--7/9--9\5--5/7\5~--7--7/9--9\5--5/7\5~---|
D|--------------------------------------------|
A|--------------------------------------------|
E|--------------------------------------------|
F
 Porque que eu corri pro banheiro 
Quando alguém falou seu nome 
[Violão Slide]
E|--------------------------------------------|
B|--------------------------------------------|
G|-7--7/9--9\5--5/7\5~---5\-------------------|
D|-----------------------5\-------------------|
A|--------------------------------------------|
E|--------------------------------------------|
      Am
E chorei, chorei 
   G                                     F
Parece que eu ainda não to pronto pra beber 
Pra sair, pra viver 
 C
Ainda sou tão seu 
                     G
Adivinha quem ainda não te esqueceu 
             Am
Nem meu coração nem eu 
             F
Nem meu coração nem eu 
 C
Ainda sou tão seu 
                     G
Adivinha quem ainda não te esqueceu 
             Am
Nem meu coração nem eu 
             F
Nem meu coração nem eu 
Nem meu coração nem eu
( C  G  Am  F )
      Am
E chorei, chorei 
   G                                     F
Parece que eu ainda não to pronto pra beber 
Pra sair, pra viver 
 C
Ainda sou tão seu 
                     G
Adivinha quem ainda não te esqueceu 
             Am
Nem meu coração nem eu 
             F
Nem meu coração nem eu 
 C
Ainda sou tão seu 
                     G
Adivinha quem ainda não te esqueceu 
             Am
Nem meu coração nem eu 
             F
Nem meu coração nem eu
                    C 
Nem meu coração nem eu
Amor da Sua Cama
Tom: G 
C
E se eu despir minha alma
 D
Será que ela também te excita?
Bm                                          Em
As vezes o amor se disfarça embaixo dos lençóis, reflita 
 C
Tenho vontade de ir mais fundo 
 D
Mas não tenho certeza se ainda posso 
 Bm                                          Em
Certeza eu tenho que posso ir além do que virar seus olhos 
                         C
Além de transpirar seus poros 
                      D
Além de arrancar sua roupa  
                        Bm                                Em
Além de apresentar o caminho que você percorre com a sua boca 
                       C                      D
Mas ó: é só uma ideia boba, é só uma ideinha boba
      C
Tudo bem 
                                 D
Se é pra você me usar o que que tem? 
                        Bm
Só de tá com você fico bem 
                             Em
Posso não ser o amor da sua vida
      C
Tudo bem
                                 D
Se é pra você me usar o que que tem? 
                         Bm
Tanto faz se você não me ama
                             Em
Posso não ser o amor da sua vida
                          C
Mas eu sou o amor da sua cama 
            D
Ai ai ai ai ai
                          Bm
Mas eu sou o amor da sua cama ai ai 
Em
Ai ai
( C  D  Bm  Em )
 
Chave Copia
Tom: G 
Intro: Am  C  G
Am            C                 G
Não vou virar a pagina, o certo é rasgar
                              Am
Não venha me dizer, que ainda dá
                  C                      G
Não quero sentir saudade, nem vontade de ligar
        D
Se eu ligar eu vou querer te ver
        C                        G/B
Se eu te ver eu vou querer voltar
        Am                   C           D
Se eu voltar eu sei que vai resolver na cama
             G                        D
Não adianta nem tentar, não vai ter volta
          Em7
Mas você sabe onde eu moro 
            C/G
Eu sei que você tem a chave copia
Em                   D             C  D
E vai querer entrar, e vai querer ficar
             G                        D
Não adianta nem tentar, não vai ter volta
          Em7
Mas você sabe onde eu moro 
            C/G
Eu sei que você tem a chave copia
Em                   D
E vai querer entrar, e vai querer ficar
       C/G                   G
Vê se para com esse vai e volta


 
A Mala É Falsa
Tom: G#
Intro: G# D#9 Fm7 C#9 D#9

Solo:


E|-----------------------------------------------------|
B|-----------------------------------------------------|
G|-3/5-5-5/6-3/1--3/8-8-8-8-8-8-8-8-6/5-3~-------------|
D|-----------------------------------------------------|
A|-----------------------------------------------------|
E|-----------------------------------------------------|


E|-----------------------------------------------------|
B|-----------------------------------------------------|
G|--3/8-8-8-8-8-8-8-8/13-12-10-------------------------|
D|-----------------------------------------------------|
A|-----------------------------------------------------|
E|-----------------------------------------------------|


E|-----------------------------------------------------|
B|-----------------------------------------------------|
G|-8h10-10-8-8h10-10-10-10-8-6-8-6~-3/6-6-6/8-8-8/13~--|
D|-----------------------------------------------------|
A|-----------------------------------------------------|
E|-----------------------------------------------------|




Fm7                             C#9
É, agora tá com tempo pra me escutar
                             D#9
agora diz que ama e que vai mudar
                                      Fm
eu sei que a cena é forte, vai doer agora
                                C#9
arrume minha mala, eu tô caindo fora

C#9                        Fm7
você não percebeu, mas esfriou
          Fm       D#/G    G#
caiu na rotina, você descuidou
                           D#9
eu só queria um pouco de carinho
         C#9            D#9    G#
fica tranquila, amor, eu tô fingindo

                 G#
A mala é falsa amor
                             D#9
engole o choro, embora eu não vou
                           Fm
agora vê se aprende a dar valor
                           C#9    D#9
matar minha sede de fazer amor uô uô

                 G#
A mala é falsa amor
                             D#9
engole o choro, embora eu não vou
                           Fm
agora vê se aprende a dar valor
                           C#9    D#9 G#
matar minha sede de fazer amor uô uô uô



E|-----------------------------------------------------|
B|-----------------------------------------------------|
G|-3/8-8-8-8-8-8-8-8-6/5-3~-3/8-8-8-8-8-8-8-8/13-12-10-|
D|-----------------------------------------------------|
A|-----------------------------------------------------|
E|-----------------------------------------------------|


E|-----------------------------------------------------|
B|-----------------------------------------------------|
G|-8h10-10-8-8h10-10-10-10-8-6-8-6~-3/6-6-6/8-8-8/13~--|
D|-----------------------------------------------------|
A|-----------------------------------------------------|
E|-----------------------------------------------------|

BACK | RELOAD | FORWARD