Copyright © 1998-2001 MV Portal de Cifras  
 
                                                                  
Esta página é parte integrante de MV Portal de Cifras (http://www.mvhp.com.br)
Este material não pode ser publicado, transmitido, reescrito ou redistribuído sem prévia autorização.

Flor E O Beija-Flor
Tom: C
Intro: C  G  Dm  F
Primeira Parte:
C                    G
Essa é uma velha história
                  Am
De uma flor e um beija-flor
                   C
Que conheceram o amor
      G               Am
Numa noite fria de outono
Pré-refrão:
                        Dm
E as folhas caídas no chão
                        Am
Da estação que não tem cor
                          F
E a flor conhece o beija-flor
                        G
E ele lhe apresenta o amor
                        Dm
E diz que o frio é uma fase ruim
                              F
Que ela era a flor mais linda do jardim
                    Dm
E a única que suportou
                    G
Merece conhecer o amor e todo seu calor
Refrão:
C                            G
Ai que saudade de um beija-flor
                       Dm
Que me beijou depois voou
             F
Pra longe demais
              C
Pra longe de nós
                      G
Saudade de um beija-flor
                          Dm
Lembranças de um antigo amor
                    F
O dia amanheceu tão lindo
                      C    G  Dm  F
Eu durmo e acordo sorrindo
Primeira Parte:
C                    G
Essa é uma velha história
                  Am
De uma flor e um beija-flor
                   C
Que conheceram o amor
      G               Am
Numa noite fria de outono
Pré-refrão:
                        Dm
E as folhas caídas no chão
                        Am
Da estação que não tem cor
                           F
E a flor conhece o beija-flor
                        G
E ele lhe apresenta o amor
                        Dm
E diz que o frio é uma fase ruim
                              F
Que ela era a flor mais linda do jardim
                    Dm
E a única que suportou
                    G
Merece conhecer o amor e todo seu calor
Refrão:
C                            G
Ai que saudade de um beija-flor
                       Dm
Que me beijou depois voou
             F
Pra longe demais
              C
Pra longe de nós
                      G
Saudade de um beija-flor
                          Dm
Lembranças de um antigo amor
                     F
O dia amanheceu tão lindo
                      C    G  Dm
Eu durmo e acordo sorrindo
                     F
O dia amanheceu tão lindo
                      C
Eu durmo e acordo sorrindo
Na Hora da Raiva 
Tom: C

Primeira Parte:

       C                           G
Encontrei uma caixinha cheia de relatos
                            Am
Um monte de documentos tão falsos
        F9
Nossas vidas

           C
Em minhas mãos agora
                              G
Tá cada parte dessa nossa história
                                  Am
E eu não sei se eu rasgo ou jogo fora
                        F9
E o que é que eu faço agora

Refrão:

     C                        G
Cometi a loucura de nossas fotos rasgar
                                Am
E uma por uma eu vou ter que colar
                    F9
Mas foi na hora da raiva
                     C
Na hora, na hora da raiva


Naquele segundo eu pensei que até
   G
Te odiava
                                Am
Mas respirei fundo e vi que eu te amava
                    F9
Mas foi na hora da raiva
                     C    G  Am  F9
Na hora, na hora da raiva

Primeira Parte:

           C
Em minhas mãos agora
                              G
Tá cada parte dessa nossa história
                                  Am
E eu não sei se eu rasgo ou jogo fora
                        F9
E o que é que eu faço agora

Refrão:

     C                        G
Cometi a loucura de nossas fotos rasgar
                                Am
E uma por uma eu vou ter que colar
                    F9
Mas foi na hora da raiva
                     C
Na hora, na hora da raiva


Naquele segundo eu pensei que até
   G
Te odiava
                                Am
Mas respirei fundo e vi que eu te amava
                    F9
Mas foi na hora da raiva
                     C  G  Am
Na hora, na hora da raiva

                    F9
Mas foi na hora da raiva
                     C
Na hora, na hora da raiva


Naquele segundo eu pensei que até
   G
Te odiava
                                Am
Mas respirei fundo e vi que eu te amava
                    F9
Mas foi na hora da raiva
                     C
Na hora, na hora da raiva
Vidinha de Balada
Tom: D

Parte 1 (2x)


     D9
E|---------0----------------0-------------------|
B|-----3-------3--------3-------3--------------|
G|---2---2---2---2----2---2---2---2---------|
D|-0----------------0---------------------------|
A|-----------------------------------------------|
E|-----------------------------------------------|


Parte 2


     Em7(9)
E|----------------------------------------------|
B|---------3--------3-------------------------|
G|-----0------------0-------------------------|
D|---4---4---4------0------------------------|
A|------------------2--------------------------|
E|-0------------0-2-3--12\0-----------------|


Primeira Parte:

D9
   Oi, tudo bem

Que bom te ver
           Em7(9)
A gente ficou, coração gostou
                  G
Não deu pra esquecer

              D9
Desculpa a visita

Eu só vim te falar
               Em7(9)
Tô a fim de você
                                  G
E se não tiver, cê vai ter que ficar

Pré-refrão:

Em         G
Eu vim acabar com essa 
 D9               A9
Sua vidinha de balada
Em           G
E dar outro gosto pra essa 
 D9             A9
Sua boca de ressaca

Refrão:

                     D9
Vai namorar comigo, sim
         A9                      Em
Vai por mim, igual nós dois não tem
         G                    D9
Se reclamar, cê vai casar também
                     A9
Com comunhão de bens
                  Em
Seu coração é meu 
                     G
E o meu é seu também

                     D9
Vai namorar comigo, sim
         A9                      Em
Vai por mim, igual nós dois não tem
         G                    D9
Se reclamar, cê vai casar também
                     A9
Com comunhão de bens
                  Em
Seu coração é meu 
                     G
E o meu é seu também
                     (D9  A9  Em  G) 2x
Vai namorar comigo, sim

Pré-refrão

Em         G
Eu vim acabar com essa 
 D9               A9
Sua vidinha de balada
Em           G
E dar outro gosto pra essa 
 D9             A9
Sua boca de ressaca

Refrão:

                     D9
Vai namorar comigo, sim
         A9                      Em
Vai por mim, igual nós dois não tem
         G                    D9
Se reclamar, cê vai casar também
                     A9
Com comunhão de bens
                  Em
Seu coração é meu 
                     G
E o meu é seu também

                     D9
Vai namorar comigo, sim
         A9                      Em
Vai por mim, igual nós dois não tem
         G                    D9
Se reclamar, cê vai casar também
                     A9
Com comunhão de bens
                  Em
Seu coração é meu 
                     G
E o meu é seu também
                     D9  A9  Em  G
Vai namorar comigo, sim

                     D9
Vai namorar comigo, sim
         A9                      Em
Vai por mim, igual nós dois não tem
         G                    D9
Se reclamar, cê vai casar também
                     A9
Com comunhão de bens
                  Em
Seu coração é meu 
                     G
E o meu é seu também

                     D9
Vai namorar comigo, sim
         A9                      Em
Vai por mim, igual nós dois não tem
         G                    D9
Se reclamar, cê vai casar também
                     A9
Com comunhão de bens
                  Em
Seu coração é meu 
                     G
E o meu é seu também

                     D9
Vai namorar comigo, sim

 

Como É Que a Gente Fica
Intro: C  Em
Dedilhado Intro e Primeira Parte:
Parte 1 de 2
   C
E|-3-3-3-3-3-3-3-3--3-3-3-3-3-3-3-3---------|
B|-1-1-1-1-1-1-1-1--1-1-1-1-1-1-1-1---------|
G|-0-0-0-0-0-0-0-0--0-0-0-0-0-0-0-0---------|
D|-2----------------2-----------------------|
A|-3----------------3-----------------------|
E|------------------------------------------|
Parte 2 de 2
   Em
E|-3-3-3-3-3-3-3-3--3-3-3-3-3-3-3-3---------|
B|-0-0-0-0-0-0-0-0--0-0-0-0-0-0-0-0---------|
G|-0-0-0-0-0-0-0-0--0-0-0-0-0-0-0-0---------|
D|------------------------------------------|
A|-2----------------2-----------------------|
E|-0----------------0-----------------------|
Solo Intro e Primeira Parte (não usar capo):
Parte 1 de 2 - 2x
E|----------------------------------------------------|
B|----------------------------------------------------|
G|-4/5-4-0--4/5-4-0--0h2------------------------------|
D|----------------------------------------------------|
A|----------------------------------------------------|
E|----------------------------------------------------|
Parte 2 de 2
E|----------------------------------------------------|
B|-------------------1h3------------------------------|
G|-4/5-4-0--4/5-4-0-----------------------------------|
D|----------------------------------------------------|
A|----------------------------------------------------|
E|----------------------------------------------------|
Primeira Parte:
C
  Eu tava certo 
                          Em
De que o amor era para os outros 
Não era pra mim
C
  Um cara esperto fechado no meu canto 
         Em
Eu só vivia assim
Pré-refrão:
D9
   Entre uma boca e outra 
           A9
Uma dose e outra
                           C9
Toda madrugada nessa vida louca
                                 D9
Nem passou pela cabeça me apaixonar
Refrão:
                      G
Eu esbarrei no seu olhar
Tropecei no seu beijo
Colei no seu rosto
              D9
Eu queimei a língua
Foi na ponta do queixo 
Me acertou de jeito
                Am7
Olha eu na sua vida
Pensa, explica 
                    C9  D9
Como é que a gente fica
                      G
Eu esbarrei no seu olhar
Tropecei no seu beijo
Colei no seu rosto
              D9
Eu queimei a língua
Foi na ponta do queixo 
Me acertou de jeito
                Am7
Olha eu na sua vida
Pensa, explica 
     G/B            C9  D9
Como é que a gente fica
                    C  Em
Como é que a gente fica
Solo Refrão:
E|----------------------------------------------------|
B|----------------------------------------------------|
G|-4/5-4-0--4/5-4-0--2h4------------------------------|
D|----------------------------------------------------|
A|----------------------------------------------------|
E|----------------------------------------------------|
Pré-refrão:
D9
   Entre uma boca e outra 
           A9
Uma dose e outra
                           C9
Toda madrugada nessa vida louca
                                 D9
Nem passou pela cabeça me apaixonar
Refrão:
                      G
Eu esbarrei no seu olhar
Tropecei no seu beijo
Colei no seu rosto
              D9
Eu queimei a língua
Foi na ponta do queixo 
Me acertou de jeito
                Am7
Olha eu na sua vida
Pensa, explica 
                    C9  D9
Como é que a gente fica
                      G
Eu esbarrei no seu olhar
Tropecei no seu beijo
Colei no seu rosto
              D9
Eu queimei a língua
Foi na ponta do queixo 
Me acertou de jeito
                Am7
Olha eu na sua vida
Pensa, explica 
     G/B            C9  D9
Como é que a gente fica
                      G
Eu esbarrei no seu olhar
Tropecei no seu beijo
Colei no seu rosto
              D9
Eu queimei a língua
Foi na ponta do queixo 
Me acertou de jeito
                Am7
Olha eu na sua vida
Pensa, explica 
     G/B            C9  D9
Como é que a gente fica
                    C  Em  C
Como é que a gente fica
Solo Refrão Final:
E|----------------------------------------------------|
B|----------------------------------------------------|
G|-4/5-4-0--4/5-4-0--0h2------------------------------|
D|----------------------------------------------------|
A|----------------------------------------------------|
E|----------------------------------------------------|
Sereia
Tom: C
Intro: C  G  Dm  F
  C              G
Eu já virei dependente
                Dm                   F       G
Tô mais do que doente com esse novo amor
C            G
Sorriso envolvente
              Dm                    F       G
Olhar transparente é o que me enfeitiçou
 Dm           F                       G
Pele cor de maçã, sou mais do que seu fã
                G
Cabelos cor de areia
 Dm             F
Paraíso é seus braços
                     G                C
Eu já comprei meu barco pra te buscar sereia
  G       Dm              F
Amor, me leva junto com você
               C          G
Seja pra onde for que eu vou
     Dm                   F
Pois sem você não tem sentido
                 C
O mundo perde a cor
      G       Dm              F
Meu amor, me leva junto com você
      G         C          G
Seja pra onde for que eu vou
     Dm                  F
Pois sem você não tem sentido
          G       C
O mundo perde a cor
Pra Que Juízo
Tom: A
Base intro 2x: Bm  D  A
Dedilhado da intro 2x:
 Bm
E|-----------0------------|
B|-----3---3---3---3------|
G|---4---4-------4--------|
D|------------------------|
A|-2----------------------|
E|------------------------|

 D
E|-----------0------------|
B|-----3---3---3---3------|
G|---2---2-------2--------|
D|-0----------------------|
A|------------------------|
E|------------------------|

 A
E|-----------0------------|
B|-----0---0---0---0------| 2x 
G|---2---2-------2--------|
D|------------------------|
A|-0----------------------|
E|------------------------|
Bm
 Tomar juízo pra que
D
 Se quem eu quero é você
A                A
 Pra que juízo?
Bm
 E não se pode negar
D
 E nem tem como esconder
A
 Que eu tô louco, muito louco
E
 Por um beijo seu
           Bm
 Pra que juízo
D            A
 Se eu já perdi o meu
           Bm
 E o meu desejo
D            A          E
 É que você perca o seu
Bm
 Foi tentando evitar seu olhar
D
 Foi tentando fugir de você
A
 Foi querendo a vontade ocultar
E
 Foi tentando querer me conter
Bm
 Foi pensando no medo de errar
D
 Foi lutando pra não me perder
A           E
 Enlouqueci
           Bm
 Pra que juízo
D            A        E
 Se eu já perdi o meu
           Bm                      D
 E eu to querendo to sempre esperando
            A          E
 É que você perca o seu
           Bm
 Pra que juízo (Pra que juízo)
D            A        E
 Se eu já perdi o meu
           Bm
 E eu to querendo
D            A          E
 É que você perca o seu

Pra Quem Duvidou
Tom: A

     E                                      A
Quero calo nas mãos de tanto ficar de mão dada
     E                                                         A
Quero estar ao seu lado de agora até quando a pele ficar enrugada
     E                                                   A
Por mais que eu me esforce sei que não consigo me aborrecer
     E                                        A
Você é palhaça e sorri de graça pra me convencer
   (A ^ E/G# ^ F#m)        A
E nem se eu quiser eu consigo 
       E
Te esquecer
Refrão:
           A
Pra quem duvidou, da gente
       E
Que se contente em saber
                                  F#m
Que eu te amo de dia de noite em qualquer horário
                                          A
Que a saudade entre nós nunca fez aniversário
         F#m                          A
Que ainda abro a porta do carro pra você
     Am                             E
Que a gente não cansa de se pertencer
(2x)
     E                                        A
Quero calo nas mãos de tanto ficar de mãos dadas
Cuida Bem Dela
Tom: G
Intro: (Am C G D/F#)
Solo:
E|------------------------------------------------|
A|------------------------------------------------|
D|--------------------------------------5---0-----|
G|--7/9--------------7/9-------------7------2-----|   (2x)
B|-------8-10-8h10-8-----8-10-8h10-8--------3-----|
E|------------------------------------------2-----|
Am
Sabe aquela menina sentada ali
C                            G
Com olhar desconfiado tão inocente
            D/F#                    E|---0-3-5--|
Eu já fui doente naquela mulher
   Am                                   C
Eu sei que agora ela deve ta olhando de lado
                                       G
Tão sem graça vendo o presente e o passado
                              D/F#
Conversando de um assunto ela já sabe qual é
     Am                  F
Esse é meu único aviso, se ela quis ficar contigo
 C               G
Faça ela feliz, faça ela feliz
                                    E|--12/0--|
           Am
Cuida bem dela
                                        C
Você não vai conhecer alguém melhor que ela
             G
Promete pra mim
                                      D/F#
O que você jurar pra ela você vai cumprir
           Am                                   C
Cuida bem dela ela gosta que reparem no cabelo dela
             G
Foi por um triz
Mas fui incapaz de ser
                   D/F#
O que ela sempre quis
            Am   C   G   D/F#
Faça ela feliz

 

Até Você Voltar
Tom: G	
Intro: G
Solo Intro:
E|----------------------------------------------------|
B|-4/6-6-6-6-6-6-6p4-3--------------------------------|
G|---------------------5-3-3/5-3----------------------|
D|----------------------------------------------------|
A|----------------------------------------------------|
E|----------------------------------------------------|
Primeira Parte:
   G
Aqui sentado nessa mesa
                 D9/F#
Só o copo de cerveja é minha companhia
                       Em7
E essa casa está tão cheia
                           C9
E parece vazia sem você comigo
   G
E hoje está fazendo um ano
                  D9/F#
Aqui no meu calendário
Ainda está marcando
               Em7
O dia e o mês,     foi a primeira vez
E o que me prometeu
C9
   Será que se esqueceu
Pré-refrão:
    Em
De todos nossos planos
Nossos filhos, nosso apartamento
Bm
   Da nossa lua de mel
Do nosso casamento
Am
   Como pude acreditar
               C9
Nesse seu juramento
                 Cm
E agora estou sozinho outra vez
Refrão:
G
  De copo sempre cheio, coração vazio
D
  Tô me tornando um cara
                 Em
Solitário e frio
                                    C9
Vai ser difícil eu me apaixonar de novo
     D
E a culpa é sua
G                               D
  Antes embriagado do que iludido
Acreditar no amor
                    Em
Já não faz mais sentido
                                C9
Eu vou continuar nessa vida bandida
  D          G
Até você voltar
Base Solo Principal: G  D  Am  C9
Solo Principal:
Parte 1
E|----------------------------------------------------|
B|-4/6-6-6-6-6-6-6p4-3--------------------------------|
G|---------------------5-5p3-3/5----------------------|
D|----------------------------------------------------|
A|----------------------------------------------------|
E|----------------------------------------------------|
Parte 2
E|---------------6-6-6p5------------------------------|
B|-4/6-6-6-6-8-6---------6-8--------------------------|
G|----------------------------------------------------|
D|----------------------------------------------------|
A|----------------------------------------------------|
E|----------------------------------------------------|
Parte 3
E|----------------------------------------------------|
B|-10-10-10-8-6-6h8--8-8-8-6-4-4----------------------|
G|-10-10-10-8-7-7h8--8-8-8-7-5-3----------------------|
D|----------------------------------------------------|
A|----------------------------------------------------|
E|----------------------------------------------------|
Parte 4
E|----------------------------------------------------|
B|---------4/6-4-3-1h3-3------------------------------|
G|---2-3-5-5/7-5-3-2h3-3------------------------------|
D|-5--------------------------------------------------|
A|----------------------------------------------------|
E|----------------------------------------------------|
Pré-refrão:
    Em
De todos nossos planos
Nossos filhos, nosso apartamento
Bm
   Da nossa lua de mel
Do nosso casamento
Am
   Como pude acreditar
               C9
Nesse seu juramento
                 Cm          D
E agora estou sozinho outra vez
Refrão:
G
  De copo sempre cheio, coração vazio
D
  Tô me tornando um cara
                 Em
Solitário e frio
                                    C9
Vai ser difícil eu me apaixonar de novo
     D
E a culpa é sua
G                               D
  Antes embriagado do que iludido
Acreditar no amor
                    Em
Já não faz mais sentido
                                C9
Eu vou continuar nessa vida bandida
  D          G
Até você voltar
G
  De copo sempre cheio, coração vazio
D
  Tô me tornando um cara
                 Em
Solitário e frio
                                    C9
Vai ser difícil eu me apaixonar de novo
     D
E a culpa é sua
G                               D
  Antes embriagado do que iludido
Acreditar no amor
                    Em
Já não faz mais sentido
                                C9
Eu vou continuar nessa vida bandida
  D          G
Até você voltar
Final: (G  D  Am  C9)
             G
Até você voltar
Solo Final:
Parte 1
E|----------------------------------------------------|
B|-4/6-6-6-6-6-6-6p4-3--------------------------------|
G|---------------------5-5p3-3/5----------------------|
D|----------------------------------------------------|
A|----------------------------------------------------|
E|----------------------------------------------------|
Parte 2
E|---------------6-6-6p5------------------------------|
B|-4/6-6-6-6-8-6---------6-8--------------------------|
G|----------------------------------------------------|
D|----------------------------------------------------|
A|----------------------------------------------------|
E|----------------------------------------------------|
Parte 3
E|----------------------------------------------------|
B|-10-10-10-8-6-6h8--8-8-8-6-4-4----------------------|
G|-10-10-10-8-7-7h8--8-8-8-7-5-3----------------------|
D|----------------------------------------------------|
A|----------------------------------------------------|
E|----------------------------------------------------|


BACK | RELOAD | FORWARD