Copyright © 1998-2019 MV Portal de Cifras  
 
                                                                  
Esta página é parte integrante de MV Portal de Cifras (http://www.mvhp.com.br)
Este material não pode ser publicado, transmitido, reescrito ou redistribuído sem prévia autorização.

Namorada Reserva
Tom: G 
Intro: C  D  Em
[Solo]
E|----------------------------------------------------|
B|-------8/7-7/5--------------------------------------|
G|----------------------------------------------------|
D|--7/9-----------------------------------------------|
A|----------------------------------------------------|
E|----------------------------------------------------|
E|----------------------------------------------------|
B|--------8-8-8/7-7/5-5/3-3/5-3/5---------------------|
G|----------------------------------------------------|
D|--5/9-9-9-9/7-7/5-5/4-4/5-4/5-----------------------|
A|----------------------------------------------------|
E|----------------------------------------------------|
E|------------12--------------------------------------|
B|------------12--------------------------------------|
G|------------12--------------------------------------|
D|----------------------------------------------------|
A|----------------------------------------------------|
E|----------------------------------------------------|

[Primeira Parte]
   C            D                 Em
Na noite anterior, outra vez me negou amor
Foi você quem negou amor
   C              D
De costas, cê virou
               Em
Na vontade, cê me deixou
Outra vez me negou amor
[Segunda Parte]
C               D
Procurou e achou
                     Em
Me flagrou fazendo errado
O que pra mim tá certo
         C                       D
Lembra aí quando a gente fez amor, diz então
          Em
Que eu ajoelho e te peço perdão
[Pré-Refrão]
        C
Lembrou não, né?
              D
Então não estressa
      C                     B7
E não xinga quem me dá amor
                     Em
Toda vez que você me nega
E|----------------------------------------------------|
B|----------------------------------------------------|
G|----------------------------------------------------|
D|----------------------------------------------------|
A|--2-0-2-0-2-0---------------------------------------|
E|-------------3-0------------------------------------|
[Refrão]
        C            D
Amante não, respeita ela
                  Em
Minha namorada reserva, ai, ai, ai
        C            D
Amante não, respeita ela
                  Em
Minha namorada reserva, ai, ai, ai
                        C             D
Ai de mim, se não fosse ela, ai, ai, ai
                  Em
Minha namorada reserva, ai, ai, ai
( C D Em  )
E|----------------------------------------------------|
B|-------8/7-7/5--------------------------------------|
G|----------------------------------------------------|
D|------------------7/9-------------------------------|
A|----------------------------------------------------|
E|----------------------------------------------------|
E|----------------------------------------------------|
B|-------8-8-8/7-7/5-5/3-3/5-3/5----------------------|
G|----------------------------------------------------|
D|----5/9-9-9-9/7-7/5-5/4-4/5-4/5---------------------|
A|----------------------------------------------------|
E|----------------------------------------------------|
E|----------------------------------------------------|
B|-------8/7--8---------------------------------------|
G|-------------9--------------------------------------|
D|----------------------------------------------------|
A|----------------------------------------------------|
E|----------------------------------------------------|
E|----------------------------------------------------|
B|-------8/7-7/5--------------------------------------|
G|----------------------------------------------------|
D|--7/9-----------------------------------------------|
A|----------------------------------------------------|
E|----------------------------------------------------|
E|----------------------------------------------------|
B|--------8-8-8/7-7/5-5/3-3/5-3/5---------------------|
G|----------------------------------------------------|
D|--5/9-9-9-9/7-7/5-5/4-4/5-4/5-----------------------|
A|----------------------------------------------------|
E|----------------------------------------------------|
E|----------------------------------------------------|
B|-------8/7-7/5--------------------------------------|
G|----------------------------------------------------|
D|--7/9-----------------------------------------------|
A|----------------------------------------------------|
E|----------------------------------------------------|
E|----------------------------------------------------|
B|----------------------------------------------------|
G|--2/4-2-0h2p0---------------------------------------|
D|--------------4-2-----------------------------------|
A|----------------------------------------------------|
E|----------------------------------------------------|
[Segunda Parte]
C               D
Procurou e achou
                     Em
Me flagrou fazendo errado
O que pra mim tá certo
         C                       D
Lembra aí quando a gente fez amor, diz então
          Em
Que eu ajoelho e te peço perdão
[Pré-Refrão]
        C
Lembrou não, né?
              D
Então não estressa
      C                     B7
E não xinga quem me dá amor
                     Em
Toda vez que você me nega
E|----------------------------------------------------|
B|----------------------------------------------------|
G|----------------------------------------------------|
D|----------------------------------------------------|
A|--2-0-2-0-2-0---------------------------------------|
E|-------------3-0------------------------------------|
[Refrão]
        C            D
Amante não, respeita ela
                  Em
Minha namorada reserva, ai, ai, ai
        C            D
Amante não, respeita ela
                  Em
Minha namorada reserva, ai, ai, ai
                        C             D
Ai de mim, se não fosse ela, ai, ai, ai
                  Em
Minha namorada reserva, ai, ai, ai
 C             D
Ai de mim, se não fosse ela, ai, ai, ai
                  Em
Minha namorada reserva, ai, ai, ai
Teste da Mãozinha (part. Henrique e Juliano)
Tom: B 
Intro: A9  E  Bm7  D  F#m
E|------------------------------------------|
B|------------------------------------------|
G|-7/9-4/6-6--4h6-4h6--6/7-6-4-2-2----------|
D|------------------------------------------|
A|------------------------------------------|
E|------------------------------------------|
E|------------------------------------------|
B|------------------------------------------|
G|-7/9--4h6-4h6--6/7-6-4-2------------------|
D|-------------------------2/4--------------|
A|------------------------------------------|
E|------------------------------------------|
[Primeira Parte]
             C#m7
Você não pensou
         D
Só terminou

Nem abriu os seus olhos
                 E         F#m
Pra ver quem fui eu nesse tempo
             C#m7
Um ano e acabou
                D
Bom enquanto durou
É a desculpa
[Pré-Refrão]
                              F#m
De quem é desprovido de sentimento
        E                    D
Um por cento é certeza de momento
           Dm
Noventa e nove é arrependimento
[Refrão]
 A9
Vai, vai
 E                        Bm7
Vai deixando a nossa vez passar
      D
Vai, vai
                   A9
Deixando mesmo acabar
             E
Vai se preparando
                    Bm7
Aí pro teste da mãozinha
       A/C#
Chora não
        D
Quando ver outra mão
De mão dada com a minha
 A9
Vai, vai
 E                        Bm7
Vai deixando a nossa vez passar
      D
Vai, vai
                   A9
Deixando mesmo acabar
             E
Vai se preparando
                    Bm7
Aí pro teste da mãozinha
       A/C#
Chora não
        D
Quando ver outra mão
De mão dada com a minha
[Solo] A9  E  Bm7  D
E|------------------------------------------|
B|------------------------------------------|
G|-7/9-4/6-6--4h6-4h6--6/7-6-4-2-2----------|
D|------------------------------------------|
A|------------------------------------------|
E|------------------------------------------|
E|------------------------------------------|
B|------------------------------------------|
G|-7/9--4h6-4h6--6/7-6-4-2------------------|
D|-------------------------2/4--------------|
A|------------------------------------------|
E|------------------------------------------|
[Primeira Parte]
F#m             C#m7
   Você não pensou
         D
Só terminou
Nem abriu os seus olhos
                 E         F#m
Pra ver quem fui eu nesse tempo
             C#m7
Um ano e acabou
                D
Bom enquanto durou
É a desculpa
[Pré-Refrão]
                              F#m
De quem é desprovido de sentimento
        E                    D
Um por cento é certeza de momento
           Dm
Noventa e nove é arrependimento
[Refrão]
 A9
Vai, vai
 E                        Bm7
Vai deixando a nossa vez passar
      D
Vai, vai
                   A9
Deixando mesmo acabar
             E
Vai se preparando
                    Bm7
Aí pro teste da mãozinha
       A/C#
Chora não
        D
Quando ver outra mão
De mão dada com a minha
 A9
Vai, vai
 E                        Bm7
Vai deixando a nossa vez passar
      D
Vai, vai
                   A9
Deixando mesmo acabar
             E
Vai se preparando
                    Bm7
Aí pro teste da mãozinha
       A/C#
Chora não
        D
Quando ver outra mão
De mão dada com a minha
[Solo] A9  E  Bm7
E|------------------------------------------|
B|------------------------------------------|
G|-7/9-4/6-6--4h6-4h6--6/7-6-4-2-2--7/9-----|
D|------------------------------------------|
A|------------------------------------------|
E|------------------------------------------|
 D                     A9
Vai deixando mesmo acabar
             E
Vai se preparando
                    Bm7
Aí pro teste da mãozinha
       A/C#
Chora não
        D
Quando ver outra mão
De mão dada com a minha
[Final] A9  E  Bm7  D  A9
E|------------------------------------------|
B|------------------------------------------|
G|-7/9-4/6-6--4h6-4h6--6/7-6-4-2-2----------|
D|------------------------------------------|
A|------------------------------------------|
E|------------------------------------------|

BACK | RELOAD | FORWARD