Copyright © 1998-2001 MV Portal de Cifras  
 
                                                                  
Esta página é parte integrante de MV Portal de Cifras (http://www.mvhp.com.br)
Este material não pode ser publicado, transmitido, reescrito ou redistribuído sem prévia autorização.

Eu Era
Tom: D 
Intro: G  D  Bm  A
Solo Intro: 
   G              D               Bm            A
E|-5-5------------5-5-------------5-5----------------| 
B|-----7-5-7~---------7-5--------------7-5-5----3-2~-|
G|-------------------------4~------------------------|
D|---------------------------------------------------|
A|---------------------------------------------------|
E|---------------------------------------------------|
Primeira Parte:
                          G
Aí você escolhe a melhor roupa
                        D
Aí você arruma o seu cabelo
                            Bm
E saí com aquela sua amiga louca
                                 A
Que diz que o bom da vida é ser solteiro
                           G
Me diz se adiantou alguma coisa
                      D
Procurar alívio passageiro
                    Bm
Beijar umas 4 ou 5 bocas
                                 A
Com beijos que não tem gosto de beijo
Pré-Refrão:
                             G
Aí lembrou de mim, não teve jeito
                             A
Aí lembrou de mim, não teve jeito
Refrão:
                 G
Beijou a boca errada, lembrou da boca certa
               D
Entrou numa gelada, lembrou da minha coberta
                     Bm
Sabe esse alguém perfeito que você tanto espera? 
   G       A
Eu era, eu era
            G
Aí você se lembra que a gente se completa
                  D
E vai voltar pra mim se for um pouco esperta
                       Bm
Porque esse alguém perfeito que você tanto espera
   G       A
Eu era, eu era
Solo: 
    G              D               Bm              A
E|-/5-5------------/5-5-------------/5-5---------------| 
B|------7-5h7~----------7-5--------------7-5-5----3p2~-|
G|--------------------------4~-------------------------|
D|-----------------------------------------------------|
A|-----------------------------------------------------|
E|-----------------------------------------------------|
Primeira Parte:
                          G
Aí você escolhe a melhor roupa
                        D
Aí você arruma o seu cabelo
                            Bm
E saí com aquela sua amiga louca
                                 A
Que diz que o bom da vida é ser solteiro
                           G
Me diz se adiantou alguma coisa
                      D
Procurar alívio passageiro
                    Bm
Beijar umas 4 ou 5 bocas
                                 A
Com beijos que não tem gosto de beijo
Pré-Refrão:
                             G
Aí lembrou de mim, não teve jeito
                             A
Aí lembrou de mim, não teve jeito
Refrão 2x:
                 G
Beijou a boca errada, lembrou da boca certa
               D
Entrou numa gelada, lembrou da minha coberta
                     Bm
Sabe esse alguém perfeito que você tanto espera? 
   G       A
Eu era, eu era
            G
Aí você se lembra que a gente se completa
                  D
E vai voltar pra mim se for um pouco esperta
                       Bm
Porque esse alguém perfeito que você tanto espera
   G       A
Eu era, eu era
Solo Final:
E|-/55------------------| 
B|--------7-5-5----3-2~-|
G|----------------------|
D|----------------------|
A|----------------------|
E|----------------------|

 

Tão Feliz
Tom: D
Intro:(2x)
 
           D9             G5(9)
E|---------------|----------------|
B|------3----3---|------3----3----|
G|----- 2----2---|------2----2----|
D|------0--------|------0---------|
A|---------------|----------------|
E|---------------|------3---------|
Riff:
E|---------------------------------------------|
B|---------------------------------------------|
G|---2---2----2p0------------------------------|
D|-----------------4--4/5\4----2p0-------0-----|
A|----------------------------------0h2—-------|
E|---------------------------------------------|
E|---------------------------------------------|
B|---------------------------------------------|
G|---2---2----2p0-------------0h2--0h2--0h2----|
D|-----------------4--4/5\4--------------------|
A|---------------------------------------------|
E|---------------------------------------------|

D9
Você tem vontades sonhos e manias
G
Tão diferentes das minhas
Bm         A             G
E o normal é mesmo duvidar
D9
Você curte a luz do sol e eu da lua
G
E quanto "tá" dormindo eu tô na rua
Bm         A               G
E quem vê diz que não vai durar
Em7              G
O estranho é que eu "tô"
Bm          A
Tão feliz, tão feliz
D9                  D/F#
Mesmo sendo o seu oposto
G
Não faz mal eu "tô" disposto
Bm
A amar e se você topar
G
Os nossos defeitos
               D9
Vão se completar
D9                  D/F#
Mesmo sendo o seu oposto
G
Não faz mal eu "tô" disposto
Bm
A amar e se você topar
G
Os nossos defeitos
               D9
Vão se completar
Solteiro Apaixonado
Tom: C
Intro: Am  F  G
Am
Mais uma vez apaixonado
Esse é meu defeito
F
Não consigo viver sem um amor no peito
G                                  D
Eu não tenho vocação pra dormir sozinho
Am
Sou louco por balada
Não dispenso a saidera
                  F
Mas quando tô com ela
É cineminha sexta-feira
                Dm
Eu tento ser certinho
Todo mundo acha errado
         E
Quem vê cara de santinho
Não vê coração safado
Am        F           G
Eu tô solteiro apaixonado
                         Am
Nem tô livre nem tô amarrado
             F
Certinho, errado
             G
Santinho, danado
                   Am
Tô muito bem, obrigado
          F           G
Eu tô solteiro apaixonado
                         Am
Nem tô livre nem tô amarrado
             F
Certinho, errado
             G
Santinho, danado
                   Am
Tô muito bem, obrigado
Romantico Anônimo
Tom: A# (com acordes na forma de G)
Intro: G D5 Em E4 C7M
Intro e Primeira parte:
       G
E|---------------------------|   
B|--3-----3-----1------0-----|
G|--0---0-0---0-0---0--0---0-|
D|----0-----0-----0------0---|
A|---------------------------|
E|--3------------------------|
       D5
E|--------------------------|
B|-0-----0-----0------0-----|
G|-2---0-2---2-2----2-2---2-|
D|-0-0-----0------0-----0---|
A|--------------------------|
E|--------------------------|
       Em          E4    Em
E|--------------------------|
B|-0-----0------------------|
G|-0---0-0---0-2--2--0----0-|
D|---2----2----2-2---2--2---|
A|--------------------------|
E|-0------------------------|
       C7M
E|--------------------------|
B|-0------0-----0-----0-----|
G|-0---0--0---0-0---0-0---0-|
D|---2------2-----2-----2---|
A|-3------------------------|
E|--------------------------|
                  G                     D5
Lembra daquele garoto que sentou do seu lado
                 Em     E4       Em    C7M
Te ofereceu no recreio um sanduíche amassado
                 G                    D5
Lembra daquele rapaz que você nem dava bola
                  Em   E4          Em   C7M
Que escrevia eu te amo nas paredes da escola
Pré Refrão:
       G
E|---------------------------|   
B|--3-----3-----1------0-----|
G|--0---0-0---0-0---0--0---0-|
D|----0-----0-----0------0---|
A|---------------------------|
E|--3------------------------|
       D5         D5(9)   D6
E|--------------------------|
B|-3-----3-----5------7-----|
G|-2---0-2---2-2----2-4---4-|
D|-0-0-----0------0-----0---|
A|--------------------------|
E|--------------------------|
       Em7                 D6
E|--------------------------|
B|-8-----8------8------7/---|
G|-7---7-7---7--7----7-4/---|
D|---9-----9------9----0/---|
A|--------------------------|
E|-7------------------------|
      C9
E|--------------------------|
B|-3------3----3------------|
G|-0---0--0----0------------|
D|---2------2---------------|
A|-3------------------------|
E|--------------------------|

                   G
Aquele cara que te deu um guarda-chuva
                    D5           D5(9) D6
Quando a tempestade te pegou na rua
                      Em7
Aquelas flores que deixavam no portão
       D6           C9
Que sempre vinha assinado no cartão
Refrão:
G    D5(9)    Em7   C9
Romântico anônimo! (2x)
Repete Primeira Parte:
                  G                     D5
Lembra daquele garoto que sentou do seu lado
                 Em     E4       Em    C7M
Te ofereceu no recreio um sanduíche amassado
                 G                    D5
Lembra daquele rapaz que você nem dava bola
                  Em   E4          Em   C7M
Que escrevia eu te amo nas paredes da escola
Pré Refrão:
                   G
Aquele cara que te deu um guarda-chuva
                    D5           D5(9) D6
Quando a tempestade te pegou na rua
                      Em7
Aquelas flores que deixavam no portão
       D6           C9
Que sempre vinha assinado no cartão
Refrão:
G    D5(9)    Em7   C9
Romântico anônimo! 
Em7
Ouvi você falar de outros amores
Bm
Eu vi o mundo então perder as cores
C9
Quanto tempo esperei a frase certa
    D/F#
Pra te mostrar que eu era
G      D5(9) Em7   C9
Romântico anônimo!(2x)
Aquele 1%
Tom: C

 Am
Eu abro a porta e puxo a cadeira do jantar
 F
A luz de velas pra ela se apaixonar.
 C
Eu mando flores, chocolates e cartão,
 G
O meu problema sempre foi ter grande coração.
 Am
Ligo no outro dia no estilo Don Juan,
 F
Dormiu bem, meu amor?! É domingo de manhã.
 C
Vamos pegar uma praia, deu saudade do seu beijo,
 G                   E7
Trato todas iguais, esse é meu defeito.
                   Am
Tô namorando todo mundo,
 F                        C
Noventa e nove por cento anjo, perfeito,
      G                       Am
Mas aquele um por cento é vagabundo,
      F                      C
Mas aquele um por cento é vagabundo,
                G
Safado e elas gostam (2x)
(Am F C G)
Canção Pra Nós Dois
Tom: G
Intro: Em C Em C G G D D
Em               C
Não, ainda não existem canções
               G
Que falam do amor que eu sinto por você D
            D                 D
C Tudo é diferente do que eu já vivi
      C                 G
Ou será que nosso amor é diferente de todos?
    C        Am                 B7
A nossa história vai ser a canção pra nós dois
   Em                  C                     G
Eu canto os beijos, abraços e as noites juntos que
        D
fizemos sem cessar
    Em                    C               D
E quanto mais canto mais sinto vontade de te amar
A Gente Pega Fogo
Tom: Am	

E|-------------------------------------|
B|-------------------------------------|
G|------4-X-5-7-9---7-X-4/5-4/5--------|
D|--7-X-----------7--------------------| 3x
A|-------------------------------------|
E|-------------------------------------|

E|------------------------------0------|
B|------------------------------1------|
G|------4-X-5-7-9---7-X-4/5-4/5-2------|
D|--7-X-----------7-------------2------|
A|------------------------------0------|
E|------------------------------0------|
Am
   É um perigo esse seu olhar
G
  Vai ser fácil demais eu me perder
F
  Eu dei na cara pra você notar
Am                        G
   Que eu morro de vontade de você
Am                                           G
  Eu penso em coisas que você nem pode imaginar
                                        Dm  F
É muito forte esse desejo, eu pego fogo
            G
É muito louco
F                G                  Am
  Imagine eu e você entre quatro paredes
Se entregando sem vergonha e sem pudor
F                  G                 Am
  Dia e noite loucamente só fazendo amor
Amor, amor, amor  (2x)
                F
E a gente pega fogo
               G
O quarto pega fogo
               Am
A gente junto é fogo, fogo, fogo, fogo  2x
Então Foge
Tom: D
Intro: G D A
     Em                G
E|---------------------------|
B|--5/7-5/7-7-7-7-5-3-5/7----|
G|---------------------------|
D|---------------------------|
A|---------------------------|
E|---------------------------|
                    D
E|---------------------------|
B|--5/7-7-7-7-5-3---3-5-5/7--|
G|-----------------2---------|
D|---------------------------|
A|---------------------------|
E|---------------------------|
     A
E|---------------------------|
B|--5-7--3-5-----------------|
G|------------4-7------------|
D|---------------------------|
A|---------------------------|
E|---------------------------|

Em7                                        G
Pois é, para de dar na trave com teu sentimento,
                                     D9/F#
De mascarar desculpas com esse argumento.
                                      A
Isso não é legal pra uma mulher inteligente
De um metro e setenta e três.
      Em7                               G
Pois é, por mais que esconda os seus anseios,
                              D9/F#
Ta deixando aflorar seus devaneios,
                                       A
Sua boca diz não quero e meu ouvido diz
Duvido, duvido, duvido.
      Em7                                    G
Inventa, que ta saindo desse relacionamento.
                                                      D
Fala só pra não me dar moral que ta quase fazendo as malas,
                     A                              Em7
Que vai pra Curitiba, vai tentar a vida e não ir embora...
               G
Seria errar de novo.
 A
Mas eu to sabendo que você
Só quer fugir, fugir , fugir de mim.
    Em7
Então foge, foge, foge da verdade,
  G
Foge foge, da felicidade !
    D9/F#                    A
Vai tentar se convencer que acabou
   Em7                                          G
E ve se consegue, segue, segue esse seu caminho.
                     D9/F#
Tenta me deixar sozinho, e vai sentir
        A                          Em7 G D9/F# A
Na pele a falta de um grande amor...
Pois é...
A Gente Pega Fogo		
Tom: C
Intro: Am F G 2x
Am
   É um perigo esse seu olhar
G
  Vai ser fácil demais eu me perder
F
  Eu dei na cara pra você notar
Am                        G
   Que eu morro de vontade de você
Am                                           G
  Eu penso em coisas que você nem pode imaginar
                                        Dm  F
É muito forte esse desejo, eu pego fogo
            G
É muito louco
F                G                  Am
  Imagine eu e você entre quatro paredes
Se entregando sem vergonha e sem pudor
F                  G                 Am
  Dia e noite loucamente só fazendo amor
Amor, amor, amor  2x
                F
E a gente pega fogo
               G
O quarto pega fogo
               Am
A gente junta fogo, fogo, fogo, fogo  2x
Domingo de Manhã
Tom: E
		
Intro e Primeira Parte:
E                                       F#m
  Tá com voz de sono foi mal se te acordei
                       A5(9)
Desligue e volte a dormir depois me
              E
Ligue aqui iiii
E                                 F#m
  Eu nem sei o que faria nesse inverno
                 A5(9)
Qualquer coisa que não fosse com você
             E
Me causaria tédio ooo
E
  Poderia estar agora no espaço em um módulo lunar,
Ó que chato
     F#m
E se eu tivesse agora velejando num barquinho no
Caribe, Deus me livre
     A5(9)
Poderia estar agora num hotel mil estrelas em Dubai
E     F#m     A5(9)
  Mas eu, eu, eu, eu
Refrão:
                 E
Prefiro estar aqui
          B5(9)               F#m
Te perturbando domingo de manhã
      A5(9)         E              B5(9)
É que eu prefiro ouvir sua voz de sono
               F#m  A5(9)               E
Domingo de manhã,        Domingo de manhã
Repete Intro e Primeira Parte:
E                                       F#m
  Tá com voz de sono foi mal se te acordei
                       A5(9)
Desligue e volte a dormir depois me
              E
Ligue aqui iiii
E                                 F#m
  Eu nem sei o que faria nesse inverno
                 A5(9)
Qualquer coisa que não fosse com você
             E
Me causaria tédio ooo
E
  Poderia estar agora no espaço em um módulo lunar,
Ó que chato
     F#m
E se eu tivesse agora velejando num barquinho no
Caribe, Deus me livre
     A5(9)
Poderia estar agora num hotel mil estrelas em Dubai
E     F#m     A5(9)
  Mas eu, eu, eu, eu
Refrão Final:
                 E
Prefiro estar aqui
          B5(9)               F#m
Te perturbando domingo de manhã
      A5(9)         E              B5(9)
É que eu prefiro ouvir sua voz de sono
               F#m  A5(9)               E
Domingo de manhã,        Domingo de manhã
B5(9) F#m
A5(9)               E
Eu prefiro estar aqui
          B5(9)               F#m
Te perturbando domingo de manhã
      A5(9)         E              B5(9)
É que eu prefiro ouvir sua voz de sono
               F#m  A5(9)               E
Domingo de manhã,        domingo de manhã
B5(9)            F#m  A5(9)
  Domingo de manhã
E                B5(9)
  Tá com voz de sono
F#m              A5(9)                   E
  Tá com voz de sono, foi mal se te acordei

BACK | RELOAD | FORWARD