Copyright © 1998-2001 MV Portal de Cifras  
 
                                                                  
Esta página é parte integrante de MV Portal de Cifras (http://www.mvhp.com.br)
Este material não pode ser publicado, transmitido, reescrito ou redistribuído sem prévia autorização.

É Problema
Tom: Bb 
Intro: G
  G              C9    D
Tô sentado no boteco
                 G
No boteco tem cadeira
                 C9    D
A cadeira tem a mesa
                   G
Que apoia minha cerveja
                    C9
E a cerveja tem o copo
               D
E o copo, a minha mão
            Em
E na minha mão não tem mais aliança, não
           C9
Porque acabou
          D                          Em
Eu só fiquei com os cacos dessa relação
[Refrão]
                  C9
Quem tem saudade sofre
                D
Quem sofre tem sede
               Em
Quem tem sede bebe
Mas quem bebe lembra
        C9             D
E é problema puxando problema
     Em
É problema puxando problema
                  C9
Quem tem saudade sofre
                D
Quem sofre tem sede
               Em
Quem tem sede bebe
Mas quem bebe lembra
       C9                D
E é problema puxando problema
      Em
É problema puxando problema
                C9           D   Em  C9
Tô num ciclo vicioso que dá pena
[Primeira Parte]
  G              C9    D
Tô sentado no boteco
                 G
No boteco tem cadeira
                 C9    D
A cadeira tem a mesa
                   G
Que apoia minha cerveja
                    C9
E a cerveja tem o copo
               D
E o copo, a minha mão
            Em
E na minha mão não tem mais aliança, não
           C9
Porque acabou
          D                          Em
Eu só fiquei com os cacos dessa relação
[Refrão]
                  C9
Quem tem saudade sofre
                D
Quem sofre tem sede
               Em
Quem tem sede bebe
Mas quem bebe lembra
        C9             D
E é problema puxando problema
     Em
É problema puxando problema
                  C9
Quem tem saudade sofre
                D
Quem sofre tem sede
               Em
Quem tem sede bebe
Mas quem bebe lembra
       C9                D
E é problema puxando problema
      Em
É problema
                  C9
Quem tem saudade sofre
                D
Quem sofre tem sede
               Em
Quem tem sede bebe
Mas quem bebe lembra
       C9                D
E é problema puxando problema
      Em
É problema puxando problema
                  C9
Quem tem saudade sofre
                D
Quem sofre tem sede
               Em
Quem tem sede bebe
Mas quem bebe lembra
       C9                D
E é problema puxando problema
      Em
É problema puxando problema
       C9                D
E é problema puxando problema
      Em
É problema puxando problema
C9                 G
Tô num ciclo vicioso que dá pena

Litrão
Tom: Bbm 
Intro: F9  G
[Primeira Parte]
C                     G
  Não sou de fazer ameaça
               F9
Mas seu beijo vai ter volta
C                       G 
  Não to querendo te apressar
                   Am7
Mas minha vida já ta pronta
 F9                                  G
Tira uma selfie comigo depois eu te mostro
F9                G                    C
Eu ainda vou namorar com essa moça da foto
[Pré-Refrão]
             F9
Eu tenho certeza vai ser de primeira
             G
Se a gente ficar é menos uma
                Am7
Solteira nesse mundo
E menos um vagabundo!
[Refrão]
        F9
Você decide a minha boca ou a do litrão
            G
Cê quer dançar comigo
                         Am7
Ou descer até o chão, sozinha!
                                        
Você quer ser da bagaceira ou quer ser minha!
        F9
Você decide a minha boca ou a do litrão
            G
Cê quer dançar comigo
                         Am7
Ou descer até o chão, sozinha!
                                    
Você quer ser da bagaceira ou quer ser minha!
    G      F9
Tá na sua mão
          G
Vai escolher amanhecer na farra
               Am7
Ou no meu colchão
( F9  G  Am7 )
[Pré-Refrão]
             F9
Eu tenho certeza vai ser de primeira
             G
Se a gente ficar é menos uma
                Am7
Solteira nesse mundo
E menos um vagabundo!
[Refrão]
        F9
Você decide a minha boca ou a do litrão
            G
Cê quer dançar comigo
                         Am7
Ou descer até o chão, sozinha!
                                        
Você quer ser da bagaceira ou quer ser minha!
        F9
Você decide a minha boca ou a do litrão
            G
Cê quer dançar comigo
                         Am7
Ou descer até o chão, sozinha!
                                    
Você quer ser da bagaceira ou quer ser minha!
        F9
Você decide a minha boca ou a do litrão
            G
Cê quer dançar comigo
                         Am7
Ou descer até o chão, sozinha!
                                    
Você quer ser da bagaceira ou quer ser minha!
    G      F9
Tá na sua mão
          G
Vai escolher amanhecer na farra
               Am7  F9
Ou no meu colchão
          G
Vai escolher amanhecer na farra
               Am7  
Ou no meu colchão
Quarta Cadeira (part. Jorge e Mateus)
Tom: Fm 
Intro: Em7  Bm7  C7M
   Em7               Bm7        C7M
E|---------x-------x---------x--------------|
B|-------3-x--0h3--x-------3-x--0-----------|
G|-----0---x--0----x-----2---x--0-----------|
D|---2-----x--2----x---0-----x--2-----------|
A|---------x-------x-2-------x--3-----------|
E|-0-------x--0----x---------x--------------|
[Primeira Parte]
G
  Ta viciando outra boca como fez com a minha
                                  Em7
Esse frio na barriga já me pertenceu
Ele só ta te amando desse jeito
                                C9
Porque ainda não te conheceu direito

Mas o fim dessa historia é sempre o mesmo
[Pré-Refrão]
G
  Ela vai dar sorrisos durante o beijo
                C9
Você vai gostar
Vai planejar uma vida deitada em seu peito
                 Em7
Cê vai acreditar
                      D9
Vai te amarrar de um jeito
                             C9
Vai usar o mesmo beijo que usou pra te ganhar
Pra se despedir sem se explicar
[Refrão]
 G
To numa mesa com quatro cadeiras
                      D9/F#    Em7
Aqui já tem três enganados por ela
Bebendo e esperando a rasteira
                  C9
Que cê vai levar dela
                               D9
Fica tranquilo que a quarta cadeira te espera
 G
To numa mesa com quatro cadeiras
                      D9/F#    Em7
Aqui já tem três enganados por ela
Bebendo e esperando a rasteira
                  C9
Que cê vai levar dela
                               D9
Fica tranquilo que a quarta cadeira te espera
 C9
Não adianta se iludir
D9                                      Em7
   Seu copo já ta cheio aqui pra te acudir
( C9  D9  Em7  D9  Em7 )
[Primeira Parte]
G
  Ta viciando outra boca como fez com a minha
                                  Em7
Esse frio na barriga já me pertenceu
Ele só ta te amando desse jeito
                                C9
Porque ainda não te conheceu direito
Mas o fim dessa historia é sempre o mesmo
[Pré-Refrão]
G
  Ela vai dar sorrisos durante o beijo
                C9
Você vai gostar
Vai planejar uma vida deitada em seu peito
                 Em7
Cê vai acreditar
                      D9
Vai te amarrar de um jeito
                             C9
Vai usar o mesmo beijo que usou pra te ganhar
Pra se despedir sem se explicar
[Refrão]
 G
To numa mesa com quatro cadeiras
                      D9/F#    Em7
Aqui já tem três enganados por ela
Bebendo e esperando a rasteira
                  C9
Que cê vai levar dela
                               D9
Fica tranquilo que a quarta cadeira te espera
 G
To numa mesa com quatro cadeiras
                      D9/F#    Em7
Aqui já tem três enganados por ela
Bebendo e esperando a rasteira
                  C9
Que cê vai levar dela
                               D9
Fica tranquilo que a quarta cadeira te espera
 C9
Não adianta se iludir
D9                                      Em7  D9  C9  D9  G
   Seu copo já ta cheio aqui pra te acudir
 C9
Não adianta se iludir
D9                                      Em7
   Seu copo já ta cheio aqui pra te acudir
Vou Ter Que Superar (part. Marília Mendonça)
Tom: Fm 
Intro: B9  C#9  D#m
E|------------------------------------------|
B|------------------------------------------|
G|-4/6-6-6-6h8-6h8--------------------------|
D|-----------------4------------------------|
A|------------------------------------------|
E|------------------------------------------|
E|--------------------2/4h6p4-2-------------|
B|------------------------------------------|
G|-4/6-6-6-6h8-6h8--------------------------|
D|-----------------4------------------------|
A|------------------------------------------|
E|------------------------------------------|
[Primeira Parte]
     D#m
Fui bobo

Imaturo demais
                           B9
Deixei escapar entre meus dedos
                                       F#
Seu amor, nosso apartamento futuro perfeito
                                          C#9
Se eu pudesse tentava de novo ter você aqui
       D#m
Quase morro
Tentando encontrar o contato novo
       B9
Dela agora
Eu sei que ela já tá em outra
             F#
E que vai embora
                                       C#9
Mas se existe consideração eu sei que vai me ouvir
[Pré-Refrão]
                 B9
Só vou pedir desculpas
O nosso pra sempre acabou
                         D#m
E um novo amor veio com tudo
                                                  B9
Meu erro pesou na balança e não vamos mais ficar juntos
                      C#9
Por que eu estraguei tudo
[Refrão]
                 B9
Vou ter que superar
                       C#9
Suas fotos com ele viajando
                  A#m                     D#m
E as amigas comentando que são um belo casal
                 B9
Vou ter que superar
              C#9
O dia do casamento
                 A#m                         D#m
Esperando que o tempo aos poucos possa me curar
             C#9  B9
Vou ter que su_perar
C#9                              D#m
    Que a gente não vai mais voltar
             C#9  B9
Vou ter que su_perar
C#9                              D#m
    Que a gente não vai mais voltar
[Solo] Db9  Eb9  Fm
E|------------------------------------------|
B|-7h9-7--7/9--11h14------------------------|
G|------------------------------------------|
D|------------------------------------------|
A|------------------------------------------|
E|------------------------------------------|
E|-----------------11-----------------------|
B|------9-11-11/13--------------------------|
G|-8/10-------------------------------------|
D|------------------------------------------|
A|------------------------------------------|
E|------------------------------------------|
E|-----------------11-----------------------|
B|------9-11-11/13-----9/13-9-9/11-9-8-4h6--|
G|-8/10-------------------------------------|
D|------------------------------------------|
A|------------------------------------------|
E|------------------------------------------|
[Pré-Refrão]
                 Db9
Só vou pedir desculpas
O nosso pra sempre acabou
                         Fm
E um novo amor veio com tudo
                                                  Db9
Meu erro pesou na balança e não vamos mais ficar juntos
                      Eb9
Por que eu estraguei tudo
[Refrão]
                 Db9
Vou ter que superar
                       Eb9
Suas fotos com ela viajando
                  Cm                      Fm
E as amigas comentando que são um belo casal
                 Db9
Vou ter que superar
              Eb9
O dia do casamento
                 Cm                          Fm
Esperando que o tempo aos poucos possa me curar
             Eb9  Db9
Vou ter que su_perar
                       Eb9
Suas fotos com ele viajando
                  Cm                      Fm
E as amigas comentando que são um belo casal
                 Db9
Vou ter que superar
              Eb9
O dia do casamento
                 Cm                          Fm
Esperando que o tempo aos poucos possa me curar
             Eb9  Db9
Vou ter que su_perar
Eb9                      Fm
    Que a gente não vai mais voltar
             Eb9  Db9
Vou ter que su_perar
Eb9                      Fm
    Que a gente não vai mais voltar
Cerveja, Sal e Limão
Tom: D 
Intro: D  A  Bm  A  G
[Primeira Parte]
D                   G
  Cerveja, sal e limão
     Bm7              A
E no último volume o som
D                  G
  Eu já perdi a noção do tempo
 Bm7                   A                      G  A
Hoje eu não fui trabalhar e nem pretendo amanhã
[Refrão]
                      D
Que até agora eu não descobri
                           A
Quantas latas eu vou precisar
Pra te tirar de mim
                   Bm7
E aceitar o nosso triste fim
                            G           A
Nenhum bar da cidade vende mais pra mim
                      D
Que até agora eu não descobri
                           A
Quantas latas eu vou precisar
Pra te tirar de mim
                    Bm7
E aceitar o nosso triste fim
                            G
Nenhum bar da cidade vende mais pra mim
    A                      D
Prefere o prejuízo que me ver assim
( A  Bm7  G )
    A                      D
Prefere o prejuízo que me ver assim
[Solo] A  Bm7  G
E|------------------------------------------|
B|-7-8-7-8-7--------------------------------|
G|-----------9-9-7-7/9-7-7/9----------------|
D|------------------------------------------|
A|------------------------------------------|
E|------------------------------------------|
E|------------------------------------------|
B|-7-8-7-8-7h8p7----------------------------|
G|---------------9-9-7-7/9---7-7h9-6~-------|
D|-------------------------9----------------|
A|------------------------------------------|
E|------------------------------------------|
[Primeira Parte]
D                   G
  Cerveja, sal e limão
     Bm7              A
E no último volume o som
D                  G
  Eu já perdi a noção do tempo
 Bm7                   A                      G  A
Hoje eu não fui trabalhar e nem pretendo amanhã
[Refrão]
                      D
Que até agora eu não descobri
                           A
Quantas latas eu vou precisar
Pra te tirar de mim
                   Bm7
E aceitar o nosso triste fim
                            G           A
Nenhum bar da cidade vende mais pra mim
                      D
Que até agora eu não descobri
                           A
Quantas latas eu vou precisar
Pra te tirar de mim
                    Bm7
E aceitar o nosso triste fim
                            G
Nenhum bar da cidade vende mais pra mim
    A                      D
Prefere o prejuízo que me ver assim
( A  Bm7  G )
    A                      D
Prefere o prejuízo que me ver assim
( A  Bm  G )
    A                      D
Prefere o prejuízo que me ver assim
[Final]
E|------------------------------------------|
B|-7-8-7-8-7--7-8-7-8-7---------------------|
G|----------------------9-7~----------------|
D|------------------------------------------|
A|------------------------------------------|
E|------------------------------------------|
Ao Vivo e a Cores (part. Anitta)
Tom: Db
Intro:  G  A  Bm  D
[Tab - Intro]
Parte 1 de 2
       G           A           Bm
E|----------x-----------x------------x------|
B|-------3--x--------2--x--------3---x------|
G|-----0----x------2----x------4-----x------|
D|---0------x----2------x----4-------x------|
A|----------x--0--------x--2---------x------|
E|-3--------x-----------x------------x------|
Parte 2 de 2
       D
E|----------x--2h3p2------------------------|
B|-------3--x--------3----------------------|
G|-----2----x-------------------------------|
D|---4------x-------------------------------|
A|-5--------x-------------------------------|
E|----------x-------------------------------|
[Primeira parte]
                   G              A
Por que você não sai daí e vem aqui?
          Bm                       D
Pode invadir, pode chegar, pode ficar
         G               A         Bm
No meu quarto, no meu abraço, apertado
         D                     G
Duvido que cê vai querer ir embora
        A
Não apavora
            Bm                      D
Depois do amor a gente vai fazendo hora
         G          A
E eu não   aguento mais
       Bm
Eu não    aguento mais
[Tab - Primeira parte 3x]
Parte 1 de 2
       G           A           Bm
E|----------x-----------x------------x------|
B|-------3--x--------2--x--------3---x------|
G|-----0----x------2----x------4-----x------|
D|---0------x----2------x----4-------x------|
A|----------x--0--------x--2---------x------|
E|-3--------x-----------x------------x------|
Parte 2 de 2
       D
E|----------x--2h3p2------------------------|
B|-------3--x--------3----------------------|
G|-----2----x-------------------------------|
D|---4------x-------------------------------|
A|-5--------x-------------------------------|
E|----------x-------------------------------|
[Variação do dedilhado final da primeira parte]
       G           A           Bm
E|----------x-----------x-------------------|
B|-------3--x--------2--x--------3----------|
G|-----0----x------2----x------4------------|
D|---0------x----2------x----4--------------|
A|----------x--0--------x--2--------x-------|
E|-3--------x-----------x-----------x-------|
[Refrão]
         G             A
A tela fria desse celular
            Bm                    D
Só ver sua foto não vai me esquentar
        G                  A
Amar você de longe é tão ruim
             Bm            D
Te quero ao vivo e a cores aqui
   G  A  Bm  D
Aqui
[Primeira parte]
                   G              A
Por que você não sai daí e vem aqui?
          Bm                       D
Pode invadir, pode chegar, pode ficar
         G               A         Bm
No meu quarto, no meu abraço, apertado
         D                     G
Duvido que cê vai querer ir embora
        A
Não apavora
            Bm                      D
Depois do amor a gente vai fazendo hora
         G          A
E eu não   aguento mais
       Bm
Eu não    aguento mais
[Refrão]
         G             A
A tela fria desse celular
            Bm                    D
Só ver sua foto não vai me esquentar
        G                  A
Amar você de longe é tão ruim
             Bm            D
Te quero ao vivo e a cores aqui
   G   A    Bm  D
Aqui Iêêê, uôôôôô
   G   A    Bm  D
Aqui Iêêê, uôôôôô
[Segunda parte]
       G                 A
Então sai daí, sai daí, vem aqui, vem
Bm               D
Invadir, invadir o meu quarto
 G                A
Meu abraço apertado, vem, vem,
   Bm
Duvido que cê vai querer sair
      D
Por que você não sai daí,
 G                 A
Sai daí, sai daí, vem aqui, vem
Bm               D
Invadir, invadir o meu quarto
 G                     A
Meu abraço, meu abraço apertado
Bm
Eu não aguento mais
[Tab -Segunda parte]
Parte 1 de 2 (REPETE 3X)
       G       A    Bm      D
E|------x----0-------x----2-----------------|
B|---3--x----2----3--x----3-----------------|
G|---0--x----2----4--x----2-----------------|
D|---0--x----2----4--x----4-----------------|
A|------x--0----2----x--5-------------------|
E|-3----x------------x----------------------|
Parte 2 de 2 (FINAL DA SEGUNDA PARTE)
       G       A    Bm
E|------x----0--2---------------------------|
B|---3--x----2--3---------------------------|
G|---0--x----2--4---------------------------|
D|---0--x----2--4---------------------------|
A|------x--0----2---------------------------|
E|-3----x-----------------------------------|
[Refrão]
                 G             A
Olhar pra tela fria desse celular
            Bm                    D
Só ver sua foto não vai me esquentar
        G                  A
Amar você de longe é tão ruim
             Bm            D
Te quero ao vivo e a cores aqui
   G   A    Bm  D
Aqui Iêêê, uôôôôô
   G   A    Bm  D
Aqui Iêêê, uôôôôô
Tô Com Moral No Céu
Tom: B 
Intro: B9  F#  E
[Solo Introdução]
E|----------------------------------------------------|
B|-----4---4--7\2-2------4---4--7/9-7-7/12------------|
G|-4-6---6-----------4-6---6--------------------------|
D|----------------------------------------------------|
A|----------------------------------------------------|
E|----------------------------------------------------|
[Primeira parte]
   B
Todo mundo falou:
     F#               E9
Não mexe com ela, não
Não vai, não
       B
Eu doido com ela
         F#                 E9
E a galera me dando pressão
Não vai, não
B                F#
  Eu quase desisti
        E9
Mas o amor gritou, gritou
Até ela me ouvir
[Pré-refrão]
       G#m
Quando o primeiro beijo dela
 F#              E
Resetou meu coração
          G#m
Eu já tinha beijado ela mil vezes
 F#        E
Na imaginação
[Refrão]
                 B9      F#
Tô com moral no céu, eu tô
             C#m                E
Tem um anjo me chamando de amor
                 B9      F#
Tô com moral no céu, eu tô
             C#m                E
Tem um anjo me chamando de amor
                 B9      F#
Tô com moral no céu, eu tô
             C#m                E
Tem um anjo me chamando de amor
                 B9      F#
Tô com moral no céu, eu tô
             A                  E
Tem um anjo me chamando de amor
Demorou, mas compensou
[Base do solo] B9  F#  A  E  B9  F#  A  E
[Solo]
Parte 1 de 2
E|-9/11-7-9~-7~-----11/12-11-9-9h11-------------------|
B|--------------9\------------------12~-14b16---------|
G|----------------------------------------------------|
D|----------------------------------------------------|
A|----------------------------------------------------|
E|----------------------------------------------------|
Parte 2 de 2
E|------------------11/12-11-9h11p9-------------------|
B|-14b16-12-14~-12~-----------------12~---------------|
G|----------------------------------------------------|
D|----------------------------------------------------|
A|----------------------------------------------------|
E|----------------------------------------------------|
[Primeira parte]
   B
Todo mundo falou:
     F#               E9
Não mexe com ela, não
Não vai, não
       B
Eu doido com ela
         F#                 E9
E a galera me dando pressão
Não vai, não
B                F#
  Eu quase desisti
        E9
Mas o amor gritou, gritou
Até ela me ouvir
[Pré-refrão]
       G#m
Quando o primeiro beijo dela
 F#              E
Resetou meu coração
          G#m
Eu já tinha beijado e9la mil vezes
 F#        E
Na imaginação
[Refrão]
                 B9      F#
Tô com moral no céu, eu tô
             C#m                E
Tem um anjo me chamando de amor
                 B9      F#
Tô com moral no céu, eu tô
             C#m                E
Tem um anjo me chamando de amor
                 B9      F#
Tô com moral no céu, eu tô
             C#m                E
Tem um anjo me chamando de amor
                 B9      F#  A  E
Tô com moral no céu, eu tô
                 B9      F#
Tô com moral no céu, eu tô
             C#m                E
Tem um anjo me chamando de amor
                 B9      F#
Tô com moral no céu, eu tô
             A                  E
Tem um anjo me chamando de amor
                 B9      F#
Tô com moral no céu, eu tô
             C#m                E
Tem um anjo me chamando de amor
                 B9      F#
Tô com moral no céu, eu tô
             A                  E
Tem um anjo me chamando de amor
                    B9
Demorou, mas compensou
A Rosa E O Beija-flor
Tom: C
Intro: C9  G  D9
Primeira Parte:
  Em                      C9
Quando você fica ao lado de uma pessoa
                             Em
E ela mesmo em silêncio lhe faz bem
Quando você fecha os olhos
C9
E no pensamento está fotografado
              Em
O rosto desse alguém
                          C9
E quando estiver no dia triste
Basta o sorriso dela
                  Em
Pra você ficar feliz
                         C9
E quando se sentir realizado
E dizer que encontrou
                      Em   D9
O bem que você sempre    quis
Pré-Refrão:
  Em       C9        G    D9
Quando chorar de saudades
  Em       C9      D9
Quando morrer de ciúmes
    Em        C9       G   D9
E quando sua sensibilidade
Em     C9        D9
Identifica o perfume
Refrão:
             C9                 G
Isso é amor,    tá rolando amor
                   D9
É o encontro de metades
                   Em
A rosa e o beija flor
             C9                 G
Isso é amor,    tá rolando amor
                   D9
É o encontro de metades
                   Em
A rosa e o beija flor
             C9                 G
Isso é amor,    tá rolando amor
                   D9
É o encontro de metades
                   Em
A rosa e o beija flor
             C9                 G
Isso é amor,    tá rolando amor
                   D9
É o encontro de metades
                   Em     C9
A rosa e o beija flor, oh oh
    G                      D9
É amor, é o encontro de metades
Primeira Parte:
  Em                      C9
Quando você fica ao lado de uma pessoa
                             Em
E ela mesmo em silêncio lhe faz bem
Quando você fecha os olhos
C9
E no pensamento está fotografado
              Em
O rosto desse alguém
                          C9
E quando estiver no dia triste
Basta o sorriso dela
                  Em
Pra você ficar feliz
                         C9
E quando se sentir realizado
E dizer que encontrou
                      Em   D9
O bem que você sempre    quis
Pré-Refrão:
  Em       C9        G    D9
Quando chorar de saudades
  Em       C9      D9
Quando morrer de ciúmes
    Em        C9       G   D9
E quando sua sensibilidade
Em     C9        D9
Identifica o perfume
Refrão:
             C9                 G
Isso é amor,    tá rolando amor
                   D9
É o encontro de metades
                   Em
A rosa e o beija flor
             C9                 G
Isso é amor,    tá rolando amor
                   D9
É o encontro de metades
                   Em
A rosa e o beija flor
             C9                 G
Isso é amor,    tá rolando amor
                   D9
É o encontro de metades
                   Em
A rosa e o beija flor
             C9                 G
Isso é amor,    tá rolando amor
                   D9
É o encontro de metades
                   Em     C9
A rosa e o beija flor, oh oh
    G                      D9
É amor, é o encontro de metades
Em    C9     G
Oh oh oh é amor
                   D9
É o encontro de metades
               Em
A rosa e o beija flor
Que Sorte A Nossa
Tom: G
Intro: G  C9
Primeira parte:
G
  Diz que pensa tanto em mim
Que tá querendo me ver
C9
   Diz que tá me lembrando bastante
Acredito em você
G
  Tô sabendo de tudo
Tô lendo seus recados
C9
   Minhas fotos que você curtiu
Tô seguindo você
Segunda Parte:
  G
E aí
                     C9
O que é que a gente vai fazer     
     Em7  D9
Diz aí,      se você quer
                   C9
E eu também tô querendo você
Refrão: 
G
  Tantos sorrisos por aí
Você querendo o meu
C9
   Tantos olhares me olhando
E eu querendo o seu
Em7                    D9
    Eu não duvido, não 
                  C9
Que não foi por acaso
Se o amor bateu na nossa porta
Que sorte a nossa 
G
  Tantos sorrisos por aí
Você querendo o meu
C9
   Tantos olhares me olhando
E eu querendo o seu
Em7                    D9
    Eu não duvido, não 
                  C9
Que não foi por acaso
Se o amor bateu na nossa porta
Que sorte a nossa 
G            C9
   Ai, ai ai ai
Que sorte a nossa
Em7  D9
             C9
   Ai, ai ai ai
                  G
Que sorte a nossa
Ser Humano Ou Anjo
Tom: Bm
Intro: 
Bm  A9   G
   Ôôôh ôôôh 
Verso 1:
D9
  Quantas vezes tentei  
Já caí, levantei
G
É você que me mantém de pé
D9
  Não preciso gritar
Você vem me salvar
 G
Você sente quando eu vou 
    Bm  A9   G
Chorar aaah aaah
Verso 2:
            Em
Parece não ser desse mundo 
             G
Porque você sabe de tudo
Refrão: 
        D
Não sei   
                           A9
Se é ser humano ou se é um anjo
                      Em
Exagero é falar de você
                        G
Passo meu tempo te admirando
A                D
Só queria saber
                           A9
Se é ser humano ou se é um anjo
                          Em
Diz aí, quero ouvir de você
                         G
Eu nem sei se te mereço tanto
A
Só queria saber
                           Bm
Se é ser humano ou se é um anjo 
 A9   G
Ôôôh Ôôôh
Verso 3:
            Em
Parece não ser desse mundo 
             G
Porque você sabe de tudo
Refrão:
        D
Não sei   
                           A9
Se é ser humano ou se é um anjo
                      Em
Exagero é falar de você
                        G
Passo meu tempo te admirando
A                D
Só queria saber
                           A9
Se é ser humano ou se é um anjo
                          Em
Diz aí, quero ouvir de você
                         G
Eu nem sei se te mereço tanto
A
Só queria saber
                                    
D                            A9
  Se é ser humano ou se é um anjo
                      Em
Exagero é falar de você
                        G
Passo meu tempo te admirando
A                D
Só queria saber
                           A9
Se é ser humano ou se é um anjo
                          Em
Diz aí, quero ouvir de você
                         G
Eu nem sei se te mereço tanto
A
Só queria saber
                            Bm
Se é ser humano, ou se é um anjo
 A9     G
Ôôôh,  ôôôh
                           Bm
Se é ser humano ou se é um anjo
 A9     G
Ôôôôh, ôôôôh
                           D
Você é ser humano, ou é um anjo
Exclusividade
Tom: Em
Em7
É, mais uma semana que eu quero te ver
C9
Coração tá sentindo falta de você
G
Manda uma mensagem ou um sinal
D (pausa)
Deixa um recado na caixa postal
Em7
É, fiquei sabendo que você não tá bem
C9
Tá sentindo minha falta também
G
Do meu calor, do meu carinho
D
E dos beijos quente que eu te dava
Am
Pensando bem não foi um bom negócio
C9
Andar de boca em boca por aí
G
Mas eu não tô aqui pra te julgar
D (pausa)
Pois nesse tempo eu também me diverti
Em7
Mas não dá certo é melhor parar
C9
A gente se assume ou para por aqui
G
Que a gente se ama não dá pra negar
D                                   Am  D
Então peço desculpas se eu te fiz chorar
Em7              C9
E longe de você, eu peço socorro
G
Mas é só te ver
D (pausa)
O tempo para, a boca seca e o peito pega fogo
Em7
E só de pensar
C9
Eu vou te perder
G                  D
Não quero aceitar ficar sem você
Em7              C9
E só de lembrar, dá uma saudade
G
Se quiser voltar
D (pausa)
Não pega fila cê tem exclusividade

 

Nessas Horas
Tom: F# 
Intro:  B9  F#  D#m  C#9
E|----9-11p9--------------------11p9--------------------------|
B|--7---------9h11----7-9-9/11~-------11p9--11p9p7--6---------|
G|-----------------------------------------------------6-6/8~-|
D|------------------------------------------------------------|
A|------------------------------------------------------------|
E|------------------------------------------------------------|
 B9                 F#
Você de lá e eu de cá
                 C#9                  B9
Olhando o mesmo céu, que distância cruel
B9                  F#
Assisto o tempo passar
                C#9                B9
Tento me dispersar, olhando o celular
   B9          F#          C#9           D#m
Metade do meu coração só quer te ver de novo
    B9        F#         C#9
E a outra só pensa em você
     B9           F#           C#9           D#m
Não tem nenhum espaço pra eu amar alguém de novo
    B9      F#      C#9
Em mim só existe você
          B9                       F#
E nessas horas, meu sorriso é passageiro
                D#m                      C#9
É aí que eu percebo, a falta que me faz você
          B9                        F#
E nessas horas, eu nem ligo pra dinheiro
                    D#m                  C#9
Pra eu me sentir inteiro, só preciso de você
      B9
De você
( B9  F#  D#m  C#9 )
E|----9-11p9--------------------11p9-----------------------|
B|--7---------9h11----7-9-9/11~-------11p9---7-6-----------|
G|------------------------------------------------6-8~-----|
D|---------------------------------------------------------|
A|---------------------------------------------------------|
E|---------------------------------------------------------|
B9                 F#
E você de lá e eu de cá
                 C#9                  B9
Olhando o mesmo céu, que distância cruel
   B9                  F#
Eu assisto o tempo passar
                C#9                B9
Tento me dispersar, olhando o celular
   B9          F#          C#9           D#m
Metade do meu coração só quer te ver de novo
    B9        F#         C#9
E a outra só pensa em você
     B9           F#           C#9           D#m
Não tem nenhum espaço pra eu amar alguém de novo
    B9      F#      C#9
Em mim só existe você
          B9                       F#
E nessas horas meu sorriso é passageiro
                D#m                      C#9
É aí que eu percebo, a falta que me faz você
          B9                           F#
E nessas horas que eu nem ligo pra dinheiro
                    D#m                  C#9
Pra eu me sentir inteiro, só preciso de você
          B9                       F#
E nessas horas meu sorriso é passageiro
                D#m                      C#9
É aí que eu percebo, a falta que me faz você
          B9                           F#
E nessas horas que eu nem ligo pra dinheiro
                    D#m                  C#9
Pra eu me sentir inteiro, só preciso de você
      B9
De você
[Final] B9  F#

 

Nosso Santo Bateu
Tom: C
Intro: F  G5  C  C/E  F
Parte 1 de 2
            F                  G5
E|--------------------------------------3---|
B|-3h5-3-1-----1-1-1--3h5-3-1-3-3-3-3-3---3-|
G|---------0h2-----0----------0-----------0-|
D|---------3------------------5-------------|
A|------------------------------------------|
E|------------------------------------------|
Parte 2 de 2
             C          C/E   F
E|------------------------------------------|
B|-3h5-3----3h5-5--5-3--1--------1----------|
G|-0-----5--0---0--0----0-0--0h2------------|
D|----------------------2----3--------------|
A|----------3------3------------------------|
E|------------------------------------------|
Primeira Parte:
C
  As vezes acho que devia 
Te dizer mais vezes
Em
   Que te amo e que te quero 
Mais que qualquer coisa
F                            C
  Por essa noite vem morar aqui
Tem gente que chega e muda 
Os planos da gente
Em
   E que faz a nossa vida 
Caminhar pra frente
F                           C
  Agora sim eu sei pra onde ir
Primeira Parte:
Parte 1 de 2
    C                Em
E|------------------------------------------|
B|-1---1---1---1----0---0---0---0-----------|
G|-0---0---0---0----0---0---0---0-----------|
D|---2---2---2---2----2---2---2---2---------|
A|-3----------------------------------------|
E|------------------0-----------------------|
Parte 2 de 2
    F                C
E|------------------------------------------|
B|-1---1---1---1----1---1---1---1-----------|
G|-2---2---2---2----0---0---0---0-----------|
D|---3---3---3---3----2---2---2---2---------|
A|------------------3-----------------------|
E|-1----------------------------------------|
Pré-refrão:
F
  Dessa vida nada se leva
G
  E no fundo todo mundo espera
C
  Um amor que venha pra somar 
Dm      F     G
   Pra completar
Pré-refrão:
Parte 1 de 2
    F                G
E|------------------3---3---3---3-----------|
B|-1---1---1---1----3---3---3---3-----------|
G|-2---2---2---2------0---0---0---0---------|
D|---3---3---3---3--------------------------|
A|------------------------------------------|
E|-1----------------3-----------------------|
Parte 2 de 2
    C               Dm      F       G
E|-----------------1---1---1---1---3---3---3|
B|-1---1---1---1---3---3---1---1---3---3---3|
G|-0---0---0---0-----2---2---2---2---0---0--|
D|---2---2---2---2-0------------------------|
A|-3----------------------------------------|
E|-------------------------1-------3--------|
Refrão:
            F
O nosso santo bateu
                 G
O amor da sua vida sou eu
                      C
E tudo que é meu hoje é seu
                  F
E o fim nem precisa rimar
O nosso santo bateu
                 G
O amor da sua vida sou eu
                      C
E tudo que é meu hoje é seu
                  F       G  C  F
E o fim nem precisa rimar
Pré-refrão:
Dessa vida nada se leva
G
E no fundo todo mundo espera
C
Um amor que venha pra somar 
  Dm  F     G
Pra  completar
Refrão:
            F
O nosso santo bateu
                 G
O amor da sua vida sou eu
                      C
E tudo que é meu hoje é seu
                  F
E o fim nem precisa rimar
O nosso santo bateu
                 G
O amor da sua vida sou eu
                      C
E tudo que é meu hoje é seu
                  F       G  F  G  C
E o fim nem precisa rimar
Oitava Dose
Tom: E
Intro: E  G#m  A9  Am

solo:


E|------------------------------------------------|
B|-----5-5-5-5-5--7-------------------------------|
G|-2h4--------------6h8------4h6h4-----4h6h4------|
D|---------------------------------6-4-------6-4-4|
A|------------------------------------------------|
E|------------------------------------------------|


 
     E
Vou sair pra beber
Hoje eu não to legal

A9
Bateria acabando
Adeus vida social

      E
Se quiser me encontrar
To no mesmo barzinho

 A9
Na avenida principal
Sentado na mesa sozinho

     C#m       G#m
Esperando, a saudade sair do meu peito
 A9                                     E
Ou alguém vir puxar a cadeira pra me consolar
           C#m
Mas tá demorando
      G#m                          A9
Eu já to na sétima dose pedindo a oitava sem gelo
Am                                     E
Pra ver se arranco um terço de você de mim

Refrão:

E                     G#m                   A9
E a parte de você que sobrar, vai me acompanhar
                    Am                           E
Eu vou deixando um pouco em cada mesa que eu sentar
                  C#m                      A9
Cada dose que eu tomar, cada boca que eu beijar
         Am                           E
Pode demorar, mas ainda deixo de te amar

 

Te Assumi Pro Brasil
Tom: A 
Intro 2x: C9  D5  Em7  D5
       
Solo Intro:
Parte 1
E|------------------------------5-4-------------------|
B|----------5--------5--------------7-5---------------|
G|-6--6-7-6----6-7-6----6-7-6-------------------------|
D|----------------------------7-----------------------|
A|----------------------------------------------------|
E|----------------------------------------------------|
Parte 2
E|----------------------------------------------------|
B|----------5--------5--------------------------------|
G|-6--6-7-6----6-7-6----6-----------------------------|
D|------------------------7-7h9-----------------------|
A|----------------------------------------------------|
E|----------------------------------------------------|
Primeira Parte:
G5                    C9
   Ser feliz pra mim não custa caro
Em7                D5
    Se você tá do lado
Eu me sinto tão bem
G5                 C9
   Você sempre me ganha na manha
Em7                  D5
    Que mistério cê tem
Pré-refrão:
G5                 C9
Arrumei a mala há mais de uma semana
 Em7
Só falta você me chamar
D5
   Pra eu fugir com você
 G5                C9
Mudei meu status, já tô namorando
Em7
Antes de você aceitar
D5                      C9
   Já te assumi pro Brasil
    D5
Iê iêêê..
Refrão:
                C9
Por que te amo, eu não sei
 D5            Em7          D5
Mas quero te amar cada vez mais
               C9
O que na vida ninguém fez
 D5                      Em7  D5
Você fez em menos de um mês
                C9
Por que te amo, eu não sei
 D5            Em7          D5
Mas quero te amar cada vez mais
               C9
O que na vida ninguém fez
 D5                      Em7
Você fez em menos de um mês
Base solo 2x:
C9  D5  Em7  D5
Solo:
Parte 1
E|-------------------------5-4------------------------|
B|-5---5---5-7-5---------------7-5--------------------|
G|---6---6-------6--4-6-4----------6------------------|
D|----------------------------------------------------|
A|----------------------------------------------------|
E|----------------------------------------------------|
Parte 2
E|----------------------------------------------------|
B|-5---5---5-7-5------------5-------------------------|
G|---6---6-------6--4-6-4-6---6-4---------------------|
D|--------------------------------7-4-----------------|
A|----------------------------------------------------|
E|----------------------------------------------------|
Pré-refrão:
G5                 C9
Arrumei a mala há mais de uma semana
 Em7
Só falta você me chamar
D5
   Pra eu fugir com você
 G5                C9
Mudei meu status, já tô namorando
Em7
Antes de você aceitar
D5                      C9
   Já te assumi pro Brasil
    D5
Iê iêêê..
Refrão:
                C9
Por que te amo, eu não sei
 D5            Em7          D5
Mas quero te amar cada vez mais
               C9
O que na vida ninguém fez
 D5                      Em7  D5
Você fez em menos de um mês
                C9
Por que te amo, eu não sei
 D5            Em7          D5
Mas quero te amar cada vez mais
               C9
O que na vida ninguém fez
 D5                      Em7
Você fez em menos de um mês
Final:
E|----------------------------------------------------|
B|----------------------------------------------------|
G|----------------------------------------------------|
D|----------------------------------------------------|
A|---------------------2---3-2------------------------|
E|-0-0-3-2-2-2-5-3-3-3---5-----5-3-0------------------|

BACK | RELOAD | FORWARD