Copyright © 1998-2017 MV Portal de Cifras  
 
                                                                  
Esta página é parte integrante de MV Portal de Cifras (http://www.mvhp.com.br)
Este material não pode ser publicado, transmitido, reescrito ou redistribuído sem prévia autorização.

Amigo Taxista
Tom: F# (com acordes na forma de F)
Intro: F Bbm
      F          Bbm
E|-------------------------------|
B|-----6~------------------------|
G|-3/5--------5-3-2h3p2----------|
D|----------------------3/5------|
A|-------------------------------|
E|-------------------------------|
F                               C
Alô amigo taxista, deixa eu te falar
                                          Dm
Tô precisando que você, venha aqui me buscar
                                          Bb
Bebi demais e não tenho condições de dirigir
               Bbm                      F
Por isso eu decidi, deixar meu carro aqui
 F                                        C
Só te peço por favor não demore muito tempo
                                        Dm
Por que o dono quer fechar o estabelecimento
                                       Bb
Vou te esperar la fora sentando na calçada
                 Bbm                    Gm   Am
Quando chegar eu explico o endereço da safada
  Bb                   C
Que tá fazendo isso comigo
                      Gm
Pode cobrar bandeira dois
          Bb                       C    C7
Pra ir ouvindo minhas magoas no caminho
[refrão]
   F
Rapaz é difícil demais gostar
                C
Dessas muié bandida
                                       Dm
Quando mais nois corre atrás mais ela pisa
                                Bb
a minha terminou comigo por mensagem
                 Bbm                 F
Me largar desse jeito foi muita sacanagem
                                     C
Me leva lá que isso não vai ficar assim
                                  Dm
Ainda tem orgulho aqui dentro de mim
Vou falar na cara dela depois
                Bb
De tudo que cê fez
               Bbm        F
Eu vou te perdoar só mais essa vez 
[volta estrofe 2]
[refrão repete 2x]
F  Bbm                             F
          Só mais essa vez
Sonha Comigo
Tom: D
Intro: 
               D           A              Bm Bm/A     G
E|-------5-2---------5-2/3/2-------------------------5/2--------|
B|--3/5/3------3/5/3------------5/7--------5/7------------------|
G|----------------------------------4-4/7-------4-4/7-----------|
D|--------------------------------------------------------------|
A|--------------------------------------------------------------|
E|--------------------------------------------------------------|
 D
 Independente do que eu te disser agora
 A
 Independente de tentar mudar a história
 Bm  Bm/A
 Mas eu vou arriscar
  G
 Posso te perder mas não vou deixar de falar
  D
 Seu amor...
                   A
 Foi sempre muito mais do que eu sonhei, pra mim
                          Bm  Bm/A
 Sempre mais do que eu mereci
            G             A
 Pensa direito antes de dormir
          D              A               Bm Bm/A
 Sonha comigo... sonha comigo... sonha comigo...
               G
 To esperando você acordar
          D              A
 Sonha comigo... sonha comigo... 
             Bm  Bm/A            G
 E quando acordar, cê vai me perdoar
          D           A
E|-------3/5-3-2--------3/5-3-2-3/5-3/5--------|
B|---1/3---------3--1/2------------------------|
G|---------------------------------------------|
D|---------------------------------------------|
A|---------------------------------------------|
E|---------------------------------------------|
  D
 Seu amor...
                                   A
 Foi sempre muito mais do que eu sonhei, pra mim
                          Bm  
 Sempre mais do que eu mereci
            G             A
 Pensa direito antes de dormir
          D              A               Bm Bm/A
 Sonha comigo... sonha comigo... sonha comigo...
               G
 To esperando você acordar
          D              A
 Sonha comigo... sonha comigo... 
             Bm  Bm/A            G   D
 E quando acordar, cê vai me perdoar

 

Diz Pra Ela
Tom: G
Intro: G D Em C
       G D (C9 G/B Am G) D G
Solo - Intro
E|-----------------------------------7-8-8-8-8-8------8-7--5-6-7------------|
B|--3-3-5-5-5-5-5---3-3-5-5-5-5-5-------------------------------------------|
G|-----------------------------------7-9-9-9-9-9----8/9-7--5-6-7------------|
D|--4-4/5-5-5-5-5---4-4/5-5-5-5-5-------------------------------------------|
A|--------------------------------------------------------------------------|
E|--------------------------------------------------------------------------|

       G            D                  Em
Meu amigo, diz pra ela, que me viu sorrindo e curtindo a vida
             C9
E que o sofrimento já não me pertence
            G
E como ninguém eu tô seguindo em frente
             D
Tô feliz da vida, tô muito contente
              Em
Que não penso nela mais nenhum segundo
            C9
E que sou o cara mais feliz do mundo
               G
Só não diz pra ela que eu estou morrendo
            D
Sem o amor dela o quanto estou sofrendo
            Am
E que na verdade estou enlouquecendo
             D
Os dias não passam tudo é um tormento
         G
Diz pra ela pra seguir em frente
              D
Esqueça o passado não pense na gente
               Em
Pois se me deixou sei que fui o culpado
            C9
Não agi direito e fiz tudo errado
                G
Nossa história longa já passaram anos
           D
E no pensamento ainda te chamo
           Em                         C9
E pro coração resume em três palavras...
Ainda te amo
Amigo Taxista
Tom: F
Intro: F Bbm
   F          Bbm
E|-------------------------------|
B|-----6~------------------------|
G|-3/5--------5-3-2h3p2----------|
D|----------------------3/5------|
A|-------------------------------|
E|-------------------------------|

F                                     C
Alô amigo taxista, deixa eu te falar
                                          Dm
Tô precisando que você, venha aqui me buscar
                                          Bb
Bebi demais e não tenho condições de dirigir
                Bbm                     F
Por isso eu decidi, deixar meu carro aqui
F                                        C
Só te peço por favor não demore muito tempo
                                       Dm
Por que o dono quer fechar o estabelecimento
                                      Bb
Vou te esperar la fora sentando na calçada
                   Bbm                   Gm   Am
Quando chegar eu explico o endereço da safada
Bb                    C
Que tá fazendo isso comigo
                      Gm
Pode cobrar bandeira dois
          Bb                      C     C7
Pra ir ouvindo minhas magoas no caminho
[refrão]
   F
Rapaz é difícil demais gostar
                C
Dessas muié bandida
                                      Dm
Quando mais nois corre atráz mais ela pisa
                               Bb
a minha terminou comigo por mensagem
                Bbm                 F
Me largar desse jeito foi muita sacanagem
                                     C
Me leva lá que isso não vai ficar assim
                                 Dm
Ainda tem orgulho aqui dentro de mim
Vou falar na cara dela depois
                Bb
De tudo que cê fez
               Bbm         F
Eu vou te perdoar só mais essa vez 
[volta estrofe 2]
[refrão repete 2x]
F  Bbm                             F
          Só mais essa vez

 

Seu Polícia
Tom: F
Intro:  F  C  Dm  C  Bb9
Solo Intro:
Parte 1 de 2
E|----------------------------------------------------|
B|----------------------------------------------------|
G|-3/5-5-5h7-7-5-5/10-10~-----------------------------|
D|----------------------------------------------------|
A|----------------------------------------------------|
E|----------------------------------------------------|
Parte 2 de 2
E|----------------------------------------------------|
B|---------------6/8\6-5---5h6--1h3-1-----------------|
G|-3/5-5-5h7-7-5---------5-5h7--2h3-2-----------------|
D|----------------------------------------------------|
A|----------------------------------------------------|
E|----------------------------------------------------|
Primeira Parte:
F
  Seu polícia
                         C
É que eu separei recentemente
       Dm
De paixão eu tô doente
      Bb9
Será que o senhor me entende
F
  Os vizinhos estão reclamando
              C
Do volume do meu som
       Dm
Mas enquanto ela não voltar
    Bb9
Eu vou continuar
Refrão:
               F
Me afogando no álcool
                       C
Com o som do carro no talo
         Dm
Manda a multa que eu vou pagar
       Bb9
Mas enquanto ela não voltar
              F
Sofrimento é mato
              C
Coração em pedaço
     Dm
Compreenda por favor
      Bb9
O meu amor me deixou
Base Solo:
F  C  Dm  Bb9
Solo Principal:
Parte 1 de 4
E|----------------------------------------------------|
B|----------------------------------------------------|
G|-3/5-5-5h7-7-5-5/10-10~-----------------------------|
D|----------------------------------------------------|
A|----------------------------------------------------|
E|----------------------------------------------------|
Parte 2 de 4
E|----------------------------------------------------|
B|-----------------6/8-8\6-5~-------------------------|
G|-3/5-5-5h7-7-5-5------------------------------------|
D|----------------------------------------------------|
A|----------------------------------------------------|
E|----------------------------------------------------|
Parte 3 de 4
E|--------------------------10-10---8---6-------------|
B|-5/10-10-10\8-8\6-6---------------------------------|
G|-5/10-10-10\9-9\7-7--7/10-------9---7---------------|
D|----------------------------------------------------|
A|----------------------------------------------------|
E|----------------------------------------------------|
Parte 4 de 4
E|-----5h6p5------------------------------------------|
B|-----------8-6-8/10---------------------------------|
G|-3/5------------------------------------------------|
D|----------------------------------------------------|
A|----------------------------------------------------|
E|----------------------------------------------------|
Primeira Parte:
F
  Seu polícia
                         C
É que eu separei recentemente
       Dm
De paixão eu tô doente
      Bb9
Será que o senhor me entende
F
  Os vizinhos estão reclamando
              C
Do volume do meu som
       Dm
Mas enquanto ela não voltar
    Bb9
Eu vou continuar
Refrão:
               F
Me afogando no álcool
                       C
Com o som do carro no talo
         Dm
Manda a multa que eu vou pagar
       Bb9
Mas enquanto ela não voltar
              F
Sofrimento é mato
              C
Coração em pedaço
     Dm
Compreenda por favor
      Bb9
O meu amor me deixou
Refrão Final:
 B9            F#
Me afogando no álcool
                       C#9
Com o som do carro no talo
         D#m
Manda a multa que eu vou pagar
       B9
Mas enquanto ela não voltar
              F#
Sofrimento é mato
              C#9
Coração em pedaço
     D#m
Compreenda por favor
      B9             F#
O meu amor me deixou
Cadeira De Aço
Tom: A
Intro:


E|-7----------7--------------------------------|
B|-----10--------------------------------------|
G|----------9----------------------------------|
D|---------------------------------------------|  (4x)
A|---------------------------------------------|
E|---------------------------------------------|


A                                       E
Sobraram as marcas das brigas da separação
                                          Bm
Ficaram os cacos de vidro e as flores no chão
                        
Se tivesse abaixado a voz
                  D
Talvez hoje seríamos nós

A
Um mês e quatro dias tentando
                      E
E ela nada de me atender

Outras bocas fui desencanando
                                Bm
Coração quase parou de tanto sofrer
                     
Meu refúgio foi mesa de bar
           D            E
Pra tentar te esquecer êêê


Refrão:
A
Sentado numa cadeira de aço
                 E
Enferrujado e bebendo
                                         Bm
Cada copo americano enganava o meu sofrimento

Achei que eu tivesse esquecido
                  D
A danada naquela hora

Até ver o seu nome escrito
                 A
Na lata de coca-cola         (2x)


      E
Ai ai ai
      Bm
Ai ai ai
      D                A
Deu uma saudade dela agora
      E
Ai ai ai
      Bm
Ai ai ai
    D                  A
Garçon joga essa lata fora
Te Amo
Tom: C 
Intro: G  D9/F#  Em7  C


        G                  D9/F#
E|-----------------------0------0-------
B|-3---3------3p0---------3------3------
G|-0-----0---0---0------2---2-----------
D|-0--0-----0-----0----0-------0--------
A|--------------------------------------
E|-3-------3----------2-------2---------


        Em7              C
E|-------------------------------
B|-3---3------3p0--------1-1-----
G|-0----0----0---0------0--0h2---
D|-2--2-----2-----2----2---2-----
A|--------------------3----------
E|-0-------0---------------------


Primeira parte:

      G
Onde você pensa que vai
           Bm
Com essas malas jogadas no chão
          C
Com esse rosto coberto de pranto
        Cm
E essa sombra no seu coração

Segunda parte:

      G
Onde você pensa que vai
         Bm
Senta aqui  ainda não acabou
         C
Sei que nunca fui o mais perfeito
       Cm
Nunca dei o que você sonhou

Mas agora eu posso ver

Refrão:

                G
Que eu não saberia
          
Acordar todo dia
              D9
Olhar do meu lado e não te sentir
              Em7
Não me aceitaria

Olhando no espelho
                C
Sabendo que um dia te deixei partir

           G
Eu não imagino como seja o mundo
              D9
Sem você por perto eu não posso seguir
       Em7
Me desculpa por tudo que fiz
               C
Se te fiz infeliz e nunca admiti

   G   D9/F#
Te amo
   Em7  C
Te amo
   G   D9/F#
Te amo
   Em7  C
Te amo

G  D9/F#  Em7  C

"REPETE SEGUNDA PARTE"

"REPETE REFRÃO 2X"

G

BACK | RELOAD | FORWARD